Oops, an error
Loading. Please wait.

I Dont Mind The Pain Bass Tab

10 views 1 this week
no commentswrite comment
1 2 3 4 5
3 more votes to show rating
add to favorites
launch autoscroll
font size
0
reset
guitar tuner
Autoscroll
slow
fast
+/-
esc
set tempo
stop
Help us to improve Ultimate-Guitar.com Take our survey!
×
Author
Difficulty
Tuning
novice
D# G# C# F# A# D#
                             DANZIG - I DON'T MIND THE PAIN

Tabbed by: Rottney (reconssuck)
E-mail: reconssuck@hotmail.de

Artist: Danzig
Song: I Don't Mind The Pain
Album: Danzig 4p (1994)
Bassist: Eerie Von


Tuning: Half-Step Down


[Main Riff] x8

F#|-------------------|
C#|-------------------|
G#|-\7----------------|
D#|----5--3--3--3--3--|


[Verse] x16

F#|-----------------|
C#|-----------------|
G#|-----------------|
D#|-5-5--5--5--5--5-|

(same rhythm as main riff, listen closely for timing)


[Chorus]

F#|---------------|----------------|
C#|---------------|----------------|
G#|---------------|----------------|
D#|-5-5-5-5-5-5-5-|-3-3-3-3-3-3-3--|

[Main Riff] x2

F#|-------------------|
C#|-------------------|
G#|-\7----------------|
D#|----5--3--3--3--3--|

[Chorus]

F#|---------------|----------------|
C#|---------------|----------------|
G#|---------------|----------------|
D#|-5-5-5-5-5-5-5-|-3-3-3-3-3-3-3--|

[Main Riff] x4

F#|-------------------|
C#|-------------------|
G#|-\7----------------|
D#|----5--3--3--3--3--|

[Chorus Variation 1] x3

F#|----------------|----------------|
C#|----------------|----------------|
G#|----------------|----------7-----|
D#|-5-5-5-5-3-3-3-3|-3--3--0--------|

(third time playing instead of playing the "0" and "7", instantly play Verse)

[Verse] x16

F#|-----------------|
C#|-----------------|
G#|-----------------|
D#|-5-5--5--5--5--5-|

[Chorus]

F#|---------------|----------------|
C#|---------------|----------------|
G#|---------------|----------------|
D#|-5-5-5-5-5-5-5-|-3-3-3-3-3-3-3--|

[Main Riff] x2

F#|-------------------|
C#|-------------------|
G#|-\7----------------|
D#|----5--3--3--3--3--|

[Chorus]

F#|---------------|----------------|
C#|---------------|----------------|
G#|---------------|----------------|
D#|-5-5-5-5-5-5-5-|-3-3-3-3-3-3-3--|

[Main Riff] x2

F#|-------------------|
C#|-------------------|
G#|-\7----------------|
D#|----5--3--3--3--3--|

[Chorus Variation 2] x2
                                    (there might be some slides to the octave "7" on A string here, play at
                                     will)
F#|----------------|----------------|----------------|---------------|
C#|----------------|----------------|----------------|---------------|
G#|----------------|----------------|----------------|---------------|
D#|-3-3-3-3-3-3-3-3|-3-3-3-3-3-3-3-3|-0-0-0-0-0-0-0-0|-0-0-0-0-0-0-0-|

[Chorus Variation 3] 

F#|----------------|----------------|----------------|---------------|
C#|----------------|----------------|----------------|---------------|
G#|----------------|----------------|----------------|---------------|
D#|-5-5-5-5-5-5-5-5|-5-5-5-5-5-5-5-5|-0-0-0-0-0-0-0-0|-0-0-0-0-0-0-0-|

F#|----------------|---|
C#|----------------|---|
G#|----------------|---|
D#|-5-5-5-5-5-5-5-5|-0-|

[Main Riff] x4

F#|-------------------|
C#|-------------------|
G#|-\7----------------|
D#|----5--3--3--3--3--|

[Verse] x16

F#|-----------------|
C#|-----------------|
G#|-----------------|
D#|-5-5--5--5--5--5-|

[Chorus]

F#|---------------|----------------|
C#|---------------|----------------|
G#|---------------|----------------|
D#|-5-5-5-5-5-5-5-|-3-3-3-3-3-3-3--|

[Main Riff] x2

F#|-------------------|
C#|-------------------|
G#|-\7----------------|
D#|----5--3--3--3--3--|

[Chorus]

F#|---------------|----------------|
C#|---------------|----------------|
G#|---------------|----------------|
D#|-5-5-5-5-5-5-5-|-3-3-3-3-3-3-3--|

[Main Riff] x2

F#|-------------------|
C#|-------------------|
G#|-\7----------------|
D#|----5--3--3--3--3--|


[Chorus Variation 2] x2
                                    

F#|----------------|----------------|----------------|---------------|
C#|----------------|----------------|----------------|---------------|
G#|----------------|----------------|----------------|---------------|
D#|-3-3-3-3-3-3-3-3|-3-3-3-3-3-3-3-3|-0-0-0-0-0-0-0-0|-0-0-0-0-0-0-0-|

[Chorus Variation 3] 

F#|----------------|----------------|----------------|---------------|
C#|----------------|----------------|----------------|---------------|
G#|----------------|----------------|----------------|---------------|
D#|-5-5-5-5-5-5-5-5|-5-5-5-5-5-5-5-5|-0-0-0-0-0-0-0-0|-0-0-0-0-0-0-0-|

F#|----------------|---|
C#|----------------|---|
G#|----------------|---|
D#|-5-5-5-5-5-5-5-5|-0-|

[Main Riff] x4

F#|-------------------|
C#|-------------------|
G#|-\7----------------|
D#|----5--3--3--3--3--|

[Chorus Variation 1] x8

F#|----------------|----------------|
C#|----------------|----------------|
G#|----------------|----------7-----|
D#|-5-5-5-5-3-3-3-3|-3--3--0--------|

(let last note ring out)
                        

************************************
| \   Slide down
************************************

That's all.
Enjoy and Rate.
Suggest correction
Give kudos to tab author, rate the tab!
1 2 3 4 5
comments
print report bad tab
guest
You may want to rate the tab now too:
select rating
Wanna post a correction for this tab? Suggest correction