Oops, an error
Loading. Please wait.

Killer Wolf tab

by Danzig
12,098 views 24 this week
1 commentread comment
1 2 3 4 5
x 5
add to favorites
×
Save as Personal and add changes to this tab that will be seen only by you. Learn more ›
×
You can save this tab as Personal to edit and correct it or add notes. All changes will be seen only by you. Learn more »
launch autoscroll
font size
0
reset
how to read this tab
guitar tuner
edit
Autoscroll
slow
fast
+/-
esc
set tempo
stop
KILLER WOLF
===========
transcription: Ryq
solo tab:      Liam Wolfen Cullen

Note: This song is played with triplet eights, giving the song a 
      shuffling rhythm.

  verse riff:
E|---------------------------------|---------------------------------|
B|---------------------------------|---------------------------------|
G|-0---0---3--2----0---0---3--2----|-0---0---3--2----3---------------|
D|-0---0---0--0----0---0---0--0----|-0---0---0--0----3-------5-------|
A|---------------------------------|-----------------1-------5-------|
E+---------------------------------|-------------------------3-------+
 | pm-->           pm-->             pm-->                           |
 |                                                                   |
G+---------------------------------|---------------------------------+
D|---------------------------------|---------------------------------|
A|---------------------------------|-----------------1---------------|
E|-3---3---3---3---3---3---3---3---|-3---3---3---3-----------3-------|


  bass riff during solo:
G|---------------------------------|---------------------------------|
D|---------------------------------|---------------------------------|
A|-------1-1-----1-1-----1-1-----1-|-------1-1-----1-1---------------|
E|-1-3-3-----3-3-----3-3-----3-3---|-1-3-3-----3-3-----------3-------|


 drums...
 G F A# D (2x)
 verse riff (2x)
 D#
 verse riff (first measure only)
 D#
 G F A# D (2x)
 verse riff (2x)
 D#
 verse riff (first measure only)
 D#
 G F A# D (4x)
 bass riff (2x) w/guitar solo
 D#
 verse riff (first measure only)
 D#
 G F A# D (4x)
 G F A# D (4x)  w/outro solo

  solo:
E|---------------------------------------------------------
B|---------------------------------------------------------
G|---------------------------------------------------------
D|-------5b--7-5-------------------------------------------
A|--5b---5b-----7-6-5-------------------------3-3-5-3-5-3--
E|-------------------8-6-3--3h6h3---3-6-6-3-6--------------

E|----------------------------------------------------------
B|-----------------6-------------------13ah----13ah----13ah-
G|-----------------5b--\3/12-(12)b--12------12------12------
D|--3-3-5-5-3-5-3--------/12--------------------------------
A|----------------------------------------------------------
E|----------------------------------------------------------

E|-------------------------------------------------------------
B|-----13ah----13ah----11ah----11ah----11ah--------------------
G|--12------12------10------10------10----------------8-10-10b-
D|-----------------------------------------------8-10----------
A|-------------------------------------------/10---------------
E|-------------------------------------------------------------

E|------------/15----15----15----15----15----15-----15----13-----
B|------11---3/15-15----15----15----15----15-----15----13-13-----
G|-10b--10b--------------------------------------------------15--
D|---------------------------------------------------------------
A|---------------------------------------------------------------
E|---------------------------------------------------------------

E|--------------------------|
B|--------------------------|
G|--15--17--15--17-/-24~~~--|
D|--------------------------|
A|--------------------------|
E|--------------------------|

  outro solo:
E|------------------------------------|
B|--6---------------------------------|
G|--5b--5p3---------------------------|
D|----------5----5--3-----------------|
A|---------------------5--4--3--------|
E|------------------------------6--3--|

            
            
Suggest correction
Creating personal tab
Creating personal tab
You can edit any tab online and save it as your Personal.

You can edit, replace or remove any tab part or add personal notes – all changes will be seen only by you.

Personal tabs can be accessed anytime from any device, even offline.
Learn more »
comments
print report bad tab
1 comment total.
0 reply
irontremelo 51 Sep 03, 2007 03:18 PM

Great tab sounds accurate!!
Although the solo is kind of confusing.

I can't find these part anywhere on the guitar solo of the song.

E------15----15----15----15----15----15----13-----------------------
B---15----15----15----15----15----15----13-13-----------------------
G---------------------------------------------15-15-17-15-17/24~----
D-------------------------------------------------------------------
A-------------------------------------------------------------------
E-------------------------------------------------------------------

Theres also parts missing from the outro solo.
man I really want to play this solo the right way!!!
Still the rest is awesome.

guest
Wanna post a correction for this tab? Suggest correction