Oops, an error
Loading. Please wait.

Mother Tab

version 3
version 3

Whole song

Interactive

by Danzig
91,555 views 33 this week
19 commentsread comments
1 2 3 4 5
x 41
add to favorites
launch autoscroll
font size
0
reset
how to read this tab
guitar tuner
backing track
0:00
0:00
×
Best way to learn
"Mother"
Autoscroll
slow
fast
+/-
esc
set tempo
stop
Artist: Danzig
Song: Mother

    B5                   E5                    G                   A5
x 2 4 4 x x          0 2 2 x x x          3 5 5 4 x x          5 7 7 x x x

   B5VII                 G5                   D5                   C#5
7 9 9 x x x          3 5 5 x x x          x 5 7 7 x x          x 4 6 6 x x

     B                Bmadd11/A             C#m7/Ab             Esus2/F#
x 2 4 4 4 x          5 5 9 9 x x          4 4 6 6 0 0          2 2 4 4 0 0

Gtr 1 (E A D G B E) - 'Untitled'
Gtr 2 (E A D G B E) - 'Untitled'

[Intro]
(Moderate Rock Q=128)
   B5        G         A5         B5             G            A5         B5
  4/4
Gtr 1
   H..       E   +Q.   E +Q   +E  E   +H.      E E   +Q   +E  E +Q   +E  E
e|-------------|--------------------|--------------|------------------------|
B|-----------0-|-(0)----------------|--------------|------------------------|
G|-4---------0-|-(0)---2-(2)------4-|-(4)------x-0-|-(0)------2-(2)------4--|
D|-4---------0-|-(0)---2-(2)------4-|-(4)--------0-|-(0)------2-(2)------4--|
A|-2---------2-|-(2)---0-(0)--(0)-2-|-(2)--------2-|-(2)------0-(0)--(0)-2--|
E|-----------3-|-(3)--------------x-|-(x)--------3-|-(3)--(3)---------------|

              G            A5         B5             G            A5         B5
   +H..       E   +Q   +E  E +Q   +E  E   +H.      E E   +Q   +E  E +Q   +E  E
e|--------------|-----------------------|--------------|------------------------|
B|--------------|-----------------------|--------------|------------------------|
G|-(4)--------0-|-(0)------2-(2)------4-|-(4)------x-0-|-(0)------2-(2)------4--|
D|-(4)--------0-|-(0)------2-(2)------4-|-(4)--------0-|-(0)------2-(2)------4--|
A|-(2)--------2-|-(2)------0-(0)--(0)-2-|-(2)--------2-|-(2)------0-(0)--(0)-2--|
E|------------3-|-(3)--(3)--------------|------------3-|-(3)--(3)---------------|

[Verse 1]
"Mother"
               G         A5         B5             G            A5         B5
    +H..       E   +Q.   E +Q   +E  E   +H..       E   +Q   +E  E +Q   +E  E
e||--------------|--------------------|--------------|-----------------------|
B||------------0-|-(0)----------------|--------------|-----------------------|
G||-(4)--------0-|-(0)---2-(2)------4-|-(4)--------0-|-(0)------2-(2)------4-|
D||-(4)--------0-|-(0)---2-(2)------4-|-(4)--------0-|-(0)------2-(2)------4-|
A||-(2)--------2-|-(2)---0-(0)--(0)-2-|-(2)--------2-|-(2)------0-(0)--(0)-2-|
E||------------3-|-(3)----------------|------------3-|-(3)--(3)--------------|

              G         A5         B5               G           A5      D5B5
   +H..       E   +Q.   E +Q   +E  E   +H..         E   +E  E E E +E  E E E
e|--------------|--------------------|----------------|----------------------|
B|------------0-|-(0)----------------|----------------|----------------------|
G|-(4)--------0-|-(0)---2-(2)------4-|-(4)----------0-|-(0)---0-2-(2)-2---4--|
D|-(4)--------0-|-(0)---2-(2)------4-|-(4)----------0-|-(0)---0-2-(2)-2-0-4--|
A|-(2)--------2-|-(2)---0-(0)--(0)-2-|-(2)----------2-|-(2)-----0-(0)---0-2--|
E|------------3-|-(3)----------------|--------------3-|-(3)-3----------------|

[Gtr 2]
   W              W                    H      Q.   E   +E  E E E +Q    E E
e|--------------|--------------------|----------------|----------------------|
B|--------------|--------------------|----------------|----------------------|
G|--------------|--------------------|----------------|---------2-(2)-----4--|
D|--------------|--------------------|----------------|-------0-2-(2)---0-4--|
A|--------------|--------------------|----------------|-----2---0-(0)-----2--|
E|--------------|--------------------|--------------3-|-(3)------------------|

[Verse 2]
"Mother, can you"
           B5       D5G           A5        B5
     +E  E E E E  E E E   +E  E E E +E  E E E
e|---------------------|---------------------|
B|o------------------0-|-(0)---0-------------|
G|--(4)---4------4---0-|-(0)---0-2-(2)-2-0-4-|
D|--(4)-2-4------4-0-0-|-(0)-0-0-2-(2)-2-0-4-|
A|o-(2)-2-2--------0-2-|-(2)-2---0-(0)-----2-|
E|-------------------3-|-(3)-3---------------|

     +E  E E E Q.     E   +Q.     E +Q    E E
e|---------------------|---------------------|
B|o--------------------|---------------------|
G|--(4)---4------------|-------------------4-|
D|--(4)-2-4------------|-------------------4-|
A|o-(2)-2-2------------|---------0-(0)-----2-|
E|-------------------3-|-(3)-------------2---|

                  D5G           A5        B5
   +E  E E E E  E E E   +E  E E E +E  E E E  4x
e|--------------------|----------------------|
B|--------------------|---------------------o|
G|-(4)---4------4---0-|-(0)---0-2-(2)-----4--|
D|-(4)-2-4------4-0-0-|-(0)---0-2-(2)-2---4--|
A|-(2)-2-2------2-0-2-|-(2)-2---0-(0)-0-2-2-o|
E|------------------3-|-(3)-3-----------2----|

   +E  E E E Q.     E   +Q.     E +Q    E E  4x
e|--------------------|----------------------|
B|--------------------|---------------------o|
G|-(4)---4------------|-------------------4--|
D|-(4)-2-4------------|-------------------4--|
A|-(2)-2-2------------|---------0-(0)-----2-o|
E|------------------3-|-(3)-------------2----|

[Chorus 1]
"Not about to..."
   Q=134
   G5           A5                 B5         N.C.     B5   A5
Gtr 1, 2
   Q  E E E E E E   +Q   E E E E E E   +Q   E E H      H    H
e|----------------|------------------|---------------|-----------|
B|----------------|------------------|---------------|-----------|
G|--------------2-|-(2)--2---2-2---4-|-(4)--4--------|-4----2----|
D|-5--5---5-5---2-|-(2)--2---2-2---4-|-(4)--4--------|-4----2----|
A|-5--5---5-5---0-|-(0)--0---0-0-0-2-|-(2)--2--------|-2----0----|
E|-3--3---0-0-0---|--------------0-2-|-(2)--2--------|-----------|

   G5           A5                 B5                       A5   G
   Q  E E E E E E   +Q   E E E E E E   +Q   E E H      H    Q  E E
e|----------------|------------------|---------------|--------------|
B|----------------|------------------|---------------|--------------|
G|--------------2-|-(2)--2---2-2---4-|-(4)--4--------|-4----2----5--|
D|-5--5---5-5---2-|-(2)--2---2-2---4-|-(4)--4--------|-4----2----5--|
A|-5--5---5-5---0-|-(0)--0---0-0-0-2-|-(2)--2--------|-2----0----5--|
E|-3--3---0-0-x---|----------------2-|-(2)--2--------|-----------3--|

        G5  G     A5                 B5         N.C.     B5   A5
   +Q   E E E E E E   +Q   E E E E E E   +Q   E E H      H    H
e|------------------|------------------|---------------|-----------|
B|------------------|------------------|---------------|-----------|
G|----------4-4---2-|-(2)--2---2-2---4-|-(4)--4--------|-4----2----|
D|-(5)--5---5-5---2-|-(2)--2---2-2---4-|-(4)--4--------|-4----2----|
A|-(5)--5---5-5---0-|-(0)--0---0-0-0-2-|-(2)--2--------|-2----0----|
E|-(3)--3---0-0-0---|--------------0-2-|-(2)--2--------|-----------|

  G5           A5                     F#5                 N.C.      B5
                                      PM------------|
  Q  E E E E E E   +Q   E E E E E E   E E E E E E E E   E E Q  Q.   E
e|----------------|------------------|-----------------|----------------|
B|----------------|------------------|-----------------|----------------|
G|--------------2-|-(2)--2---2-2-2-2-|-----------------|-------------4--|
D|-5--5---5-5---2-|-(2)--2---2-2-2-2-|-----------------|-4-----------4--|
A|-5--5---5-5-5-0-|-(0)--0---0-0-0-0-|-4-4-4-4-4-4-4-4-|-4-----------2--|
E|-3--3---3-3-3---|------------------|-2-2-2-2-2-2-2-2-|-2--------------|

[Verse 3]
"Mother tell your"
    B5      N.C.     G           A5        B5
    +E  E E E E  E E E   +E  E E E +E  E E E
e|--------------------|---------------------|
B|------------------0-|-(0)---0-------------|
G|-(4)---4------4---0-|-(0)---0-2-(2)-2-0-4-|
D|-(4)-2-4------4-0-0-|-(0)-0-0-2-(2)-2-0-4-|
A|-(2)-2-2--------0-2-|-(2)-2---0-(0)-----2-|
E|------------------3-|-(3)-3---------------|

[Gtr 2]
    E  E E E Q.     E   +Q.     E +Q    E E
e|--------------------|---------------------|
B|--------------------|---------------------|
G|--4----4------------|-------------------4-|
D|--4--2-4------------|-------------------4-|
A|--2--2-2------------|---------0-(0)-----2-|
E|------------------3-|-(3)-------------2---|

Q=136
           N.C.     G           A5        B5
   +E  E E E E  E E E   +E  E E E +E  E E E
e|--------------------|---------------------|
B|--------------------|---------------------|
G|-(4)---4------4---0-|-(0)---0-2-(2)-----4-|
D|-(4)-2-4------4-0-0-|-(0)---0-2-(2)-2---4-|
A|-(2)-2-2------2-0-2-|-(2)-2---0-(0)-0-2-2-|
E|------------------3-|-(3)-3-----------2---|

   +E  E E E Q.     E   +Q.     E +Q    E E
e|--------------------|---------------------|
B|--------------------|---------------------|
G|-(4)---4------------|-------------------4-|
D|-(4)-2-4------------|-------------------4-|
A|-(2)-2-2------------|---------0-(0)-----2-|
E|------------------3-|-(3)-------------2---|

   Q=138
   B5      N.C.     G           A5        B5
   +E  E E E E  E E E   +E  E E E +E  E E E
e|--------------------|---------------------|
B|------------------0-|-(0)---0-------------|
G|-(4)---4------4---0-|-(0)---0-2-(2)-2-0-4-|
D|-(4)-2-4------4-0-0-|-(0)-0-0-2-(2)-2-0-4-|
A|-(2)-2-2--------0-2-|-(2)-2---0-(0)-----2-|
E|------------------3-|-(3)-3---------------|

   +E  E E E Q.     E   +Q.     E +Q    E E
e|--------------------|---------------------|
B|--------------------|---------------------|
G|-(4)---4------------|-------------------4-|
D|-(4)-2-4------------|-------------------4-|
A|-(2)-2-2------------|---------0-(0)-----2-|
E|------------------3-|-(3)-------------2---|

   Q=140
           N.C.     G           A5        B5
   +E  E E E E  E E E   +E  E E E +E  E E E
e|--------------------|----------------------|
B|--------------------|----------------------|
G|-(4)---4------4---0-|-(0)---0-2-(2)-----4--|
D|-(4)-2-4------4-0-0-|-(0)---0-2-(2)-2---4--|
A|-(2)-2-2------2-0-2-|-(2)-2---0-(0)-0-2-2--|
E|------------------3-|-(3)-3-----------2----|

   +E  E E E Q.     E   +Q.     E +Q    E E
e|--------------------|----------------------|
B|--------------------|----------------------|
G|-(4)---4------------|-------------------4--|
D|-(4)-2-4------------|-------------------4--|
A|-(2)-2-2------------|---------0-(0)-----2--|
E|------------------3-|-(3)-------------2----|

   Q=142
   B5      N.C.     G           A5        B5
   +E  E E E E  E E E   +E  E E E +E  E E E
e|--------------------|---------------------|
B|------------------0-|-(0)---0-------------|
G|-(4)---4------4---0-|-(0)---0-2-(2)-2-0-4-|
D|-(4)-2-4------4-0-0-|-(0)-0-0-2-(2)-2-0-4-|
A|-(2)-2-2--------0-2-|-(2)-2---0-(0)-----2-|
E|------------------3-|-(3)-3---------------|

   +E  E E E Q.     E   +Q.     E +Q    E E
e|--------------------|---------------------|
B|--------------------|---------------------|
G|-(4)---4------------|-------------------4-|
D|-(4)-2-4------------|-------------------4-|
A|-(2)-2-2------------|---------0-(0)-----2-|
E|------------------3-|-(3)-------------2---|

   Q=144
           N.C.     G           A5        B5
   +E  E E E E  E E E   +E  E E E +E  E E E
e|--------------------|----------------------|
B|--------------------|----------------------|
G|-(4)---4------4---0-|-(0)---0-2-(2)-----4--|
D|-(4)-2-4------4-0-0-|-(0)---0-2-(2)-2---4--|
A|-(2)-2-2------2-0-2-|-(2)-2---0-(0)-0-2-2--|
E|------------------3-|-(3)-3-----------2----|

   +E  E E E Q.     E   +Q.     E +Q    E E
e|--------------------|----------------------|
B|--------------------|----------------------|
G|-(4)---4------------|-------------------4--|
D|-(4)-2-4------------|-------------------4--|
A|-(2)-2-2------------|---------0-(0)-----2--|
E|------------------3-|-(3)-------------2----|

   Q=147
   B5      N.C.     G           A5        B5
   +E  E E E E  E E E   +E  E E E +E  E E E
e|--------------------|---------------------|
B|------------------0-|-(0)---0-------------|
G|-(4)---4------4---0-|-(0)---0-2-(2)-2-0-4-|
D|-(4)-2-4------4-0-0-|-(0)-0-0-2-(2)-2-0-4-|
A|-(2)-2-2--------0-2-|-(2)-2---0-(0)-----2-|
E|------------------3-|-(3)-3---------------|

  +E  E E E Q.     E   +Q.     E +Q    E E
e|--------------------|---------------------|
B|--------------------|---------------------|
G|-(4)---4------------|-------------------4-|
D|-(4)-2-4------------|-------------------4-|
A|-(2)-2-2------------|---------0-(0)-----2-|
E|------------------3-|-(3)-------------2---|

           N.C.     G           A5        B5
   +E  E E E E  E E E   +E  E E E +E  E E E
e|--------------------|----------------------|
B|--------------------|----------------------|
G|-(4)---4------4---0-|-(0)---0-2-(2)-----4--|
D|-(4)-2-4------4-0-0-|-(0)---0-2-(2)-2---4--|
A|-(2)-2-2------2-0-2-|-(2)-2---0-(0)-0-2-2--|
E|------------------3-|-(3)-3-----------2----|

   +E  E E E Q.     E   +Q.     E +Q    E E
e|--------------------|----------------------|
B|--------------------|----------------------|
G|-(4)---4------------|-------------------4--|
D|-(4)-2-4------------|-------------------4--|
A|-(2)-2-2------------|---------0-(0)-----2--|
E|------------------3-|-(3)-------------2----|


[Chorus 2]
   Q=151
   $
   G5           A5                 B5         N.C.     B5   A5
   Gtrs I, II
   Q  E E E E E E   +Q   E E E E E E   +Q   E E H      H    H
e|----------------|------------------|---------------|-----------|
B|----------------|------------------|---------------|-----------|
G|--------------2-|-(2)--2---2-2---4-|-(4)--4--------|-4----2----|
D|-5--5---5-5---2-|-(2)--2---2-2---4-|-(4)--4--------|-4----2----|
A|-5--5---5-5---0-|-(0)--0---0-0-0-2-|-(2)--2--------|-2----0----|
E|-3--3---0-0-0---|--------------0-2-|-(2)--2--------|-----------|

   G5           A5                 B5         N.C.     B5   A5   G5
   Q  E E E E E E   +Q   E E E E E E   +Q   E E H      H    Q  E E
e|----------------|------------------|---------------|--------------|
B|----------------|------------------|---------------|--------------|
G|--------------2-|-(2)--2---2-2---4-|-(4)--4--------|-4----2-------|
D|-5--5---5-5---2-|-(2)--2---2-2---4-|-(4)--4--------|-4----2----5--|
A|-5--5---5-5---0-|-(0)--0---0-0-0-2-|-(2)--2--------|-2----0----5--|
E|-3--3---0-0-x---|----------------2-|-(2)--2--------|-----------3--|

   G5     G     A5                 B5         N.C.     B5   A5
   Q  E E E E E E   +Q   E E E E E E   +Q   E E H      H    H
e|----------------|------------------|---------------|-----------|
B|----------------|------------------|---------------|-----------|
G|--------4-4---2-|-(2)--2---2-2---4-|-(4)--4--------|-4----2----|
D|-5--5---5-5---2-|-(2)--2---2-2---4-|-(4)--4--------|-4----2----|
A|-5--5---5-5---0-|-(0)--0---0-0-0-2-|-(2)--2--------|-2----0----|
E|-3--3---0-0-0---|--------------0-2-|-(2)--2--------|-----------|

          To Coda
  G5   N.C.    A5       N.C.    B5
                                    PM------------------------------|
  Q  E E E E E E   Q  E E E E E E   E E E E E E E E   E E E E E E E E
e|----------------|----------------|-----------------|------------------|
B|----------------|----------------|-----------------|------------------|
G|--------------2-|-2--2---2-2---4-|-4-4-4-4-4-4-4-4-|-4-4-4-4-4-4---4--|
D|-5--5---5-5---2-|-2--2---2-2-0-4-|-4-4-4-4-4-4-4-4-|-4-4-4-4-4-4---4--|
A|-5--5---5-5-5-0-|-0--0---0-0-0-2-|-2-2-2-2-2-2-2-2-|-2-2-2-2-2-2-x-2--|
E|-3--3---3-3-3---|----------------|-----------------|------------------|


[Solo 1]
                      |-3-|      |-3--|
   S  S S S S S a S S S S S S S +S  S S S S
e|---------------------------------------------|
B|---------------------------------------------|
G|--------------------------7-9-(9)p7-----9b11-|
D|------------------7-9p7-------------9p7------|
A|--------5-7-5-7s9-------9--------------------|
E|-7--5-7--------------------------------------|

             A5                  B5VII
  +Q   +E    E   +Q.             E
   |    |    |    |              |
   /    /    /    /              /

   +Q   +S  E   S  S     +E. S  S E
e|---------------------------------------|
B|---------------------------------------|
G|-(9)--(9)-9p==7--9b11==(9)-9rp7-9b11r==|
D|---------------------------------------|
A|---------------------------------------|
E|---------------------------------------|

  B5                  G5                    A5                  B5
   H.             E    E        +Q.         E +Q.                E
   |              |    |         |          |  |                 |
   /              x    /         /          /  /                 /

         ~~~~~~~
   +E. S Q  +E  E  S S  E        +E   +E   E E  E       +S  S  E  S  +S
e|-------------------7--------|----------------10b11.5r(10)p7----------------|
B|--------------7-10---10b12==|=(10)r(10)-10-7----------------10-10-(10)b12==|
G|-(9)------------------------|----------------------------------------------|
D|-----9-9--(9)---------------|----------------------------------------------|
A|----------------------------|----------------------------------------------|
E|----------------------------|----------------------------------------------|

                                                  F#    G5
    H.                                             E     E
    |                                              |     |
    /                                              o     /

    +E   +E        +E        +E      +S   S   S  S  S  S  E
e|---------------------------------------------------------------|
B|-(10)r(10)b10.5r(10)b12.5r(10)b12-(10)p<7>-------15h17-17b19===|
G|-------------------------------------------14h16---------------|
D|---------------------------------------------------------------|
A|---------------------------------------------------------------|
E|---------------------------------------------------------------|

                   A5                  B5
   +Q.              E +Q.                E
    |               |  |                 |
    /               /  /                 /

                                         |--3---|
   +E   E   E       E  E       E  E     +S   S  S
e|------17r-17------17-17------17-17---------------|
B|-(17)-----17b18.5----17b19.5----17b19r(17)-17p15-|
G|-------------------------------------------------|
D|-------------------------------------------------|
A|-------------------------------------------------|
E|-------------------------------------------------|
                                                                  D.S. al Coda
                                G5              A5
   H.                        +E  E        H      H              +H.      +E E
   |                          |  |        |      |               |        | |
   /                          /  /        /      /               /        / x

    S   S  E  Q   +S   +S   E  E  E       +H      E     +Q.      +W
e|----------------------------19-24b26-|-(24)----24b26-(24)---|-(24)-------------|
B|-17--17-15---------------19----------|----------------------|------------------|
G|-----------16--(16)-(16)-------------|----------------------|------------------|
D|-------------------------------------|----------------------|------------------|
A|-------------------------------------|----------------------|------------------|
E|-------------------------------------|----------------------|------------------|

   &
   A5           B5
   Gtr II
   Q  E E E E E E   E E E E E E E E   E E E E  E  E   E    E
   |  |   | | | |   | | | | | | | |   | | | |  |  |   |    |
   /  /   / / / /   o / / / / / / /   / / / /  /  /   /    /

[Guitar 1]
    Q  E E E E E E   W                 H        E.   S E    E
e|----------------|-----------------|------------------------|
B|----------------|-----------------|---------------7------7-|
G|-2--2---2-2-2---|-----------------|-----------------9b11---|
D|-2--2---2-2-2---|-----------------|------------------------|
A|-0--0---0-0-0-2-|-----------------|---------(0)------------|
E|--------------2-|-----------------|---------(0)------------|

[Outro]
   Q=160
   B5
   H..                        E
   |                          |
   /                          x

    S    S E E     E  E    E E E
e|-7----7-7----------7----7---------|
B|-7--------7-----7--7----7---9b10==|
G|-9b11-----9b11==9r-9b11---7-9b10==|
D|----------------------------------|
A|----------------------------------|
E|----------------------------------|

  G5              A5            B5
   H              H              W
   |              |              |
   /              /              /
                                          ~~~~~~~~
   +E  +S  S S S E E E E E       +E   S S Q  +E   E S E S
e|-----------------------------|---------------------------|
B|-(9)r(9)p7-9p7---7---7-------|---------------------------|
G|-(9)r(9)-7-9-7-0-7---7-9b11==|=(9)r-9p7------------------|
D|---------------9---9---------|----------9--(9)\----------|
A|---------------9-------------|----------------------5----|
E|-----------------------------|------------------5s7------|

  D5                 C#5
  H                  H
  |                  |
  /                  /

  |--3--|     |-3--|      |-3-|
  S S T T E E S  S S S S  S S S S  E  S
e|----------------------7--------7----------|
B|-----------7-7h10p7-----10p7-----10-10b12-|
G|---7----------------9--------9------------|
D|-7---9p7-7--------------------------------|
A|------------------------------------------|
E|------------------------------------------|

  B5
    W
    |
    /
             |-3--|
   +E   +E   E E  E      +E   E  +E   E
e|----------------10b12==(10)-10-(10)r---|
B|-(10)-(10)-10-7-10b12==(10)-10-(10)r-7-|
G|---------------------------------------|
D|---------------------------------------|
A|---------------------------------------|
E|---------------------------------------|

  G5                     A5
   H                      H
   |                      |
   /                      /

   |--3--|
   Q     E        +E   E  E     E  S   S  S  S
e|-10b12-10b11.5==(10)r---10b11r10-11-/12-12-12-|
B|-10b12----------------7-10b12r10--------------|
G|----------------------------------------------|
D|----------------------------------------------|
A|----------------------------------------------|
E|----------------------------------------------|

  B5                     D5                         C#5
   H.                 E  E    H                      H
   |                  |  |    |                      |
   /                  /  /    /                      /

              ~~~~~~~~~~~
                                     |--3---|
   Q      Q   Q      +Q       E     +S   S  S  E  E  Q     E  E
e|-12b14r=12--12b14--(12)---|-12b14r(12)p10----12-10-12\------10-|
B|------------12b14--(12)---|---------------12-------12\--/12----|
G|--------------------------|------------------------------------|
D|--------------------------|------------------------------------|
A|--------------------------|------------------------------------|
E|--------------------------|------------------------------------|

  B5
   W
   |
   /

   |-------3--------|   |--3---|  |--3--|
   S  S  S  +S   S  S  +T   T  S  T  S  S  S  S  S  S  T  T  S  S  S  S
e|-14-10---------10h12-(12)p10----10h14p10h12p10----10h14p10----10h14p10-|
B|-------12-(12)---------------12----------------12----------12----------|
G|-----------------------------------------------------------------------|
D|-----------------------------------------------------------------------|
A|-----------------------------------------------------------------------|
E|-----------------------------------------------------------------------|

  G5                         A5
   H                          H
   |                          |
   /                          /

                     |--3--|           |------3------|
   S  S  S  S  S  S  S  S  S  S S  E   S  S  S S  S  S
e|----10h12p10----10h14p10h12p10-------14h17p14---14-------|
B|-12----------12------------------12/----------0----17b19-|
G|-------------------------------0-------------------------|
D|---------------------------------------------------------|
A|---------------------------------------------------------|
E|---------------------------------------------------------|

  B5                         D5
    H.                    +E  E
    |                      |  |
    /                      /  /

    +Q    E  E     E     E  E  E
e|-------17-------17----17----17----|
B|-(17)-----17b19-17b19----17-17b19-|
G|----------------------------------|
D|----------------------------------|
A|----------------------------------|
E|----------------------------------|

                   C#5
    H               H
    |               |
    /               /

    +E.  S  S  S  E  E  Q      +E
e|-(17)----17p14----14-------------|
B|-(17)-15-------17-14-17b19r=(17)-|
G|---------------------------------|
D|---------------------------------|
A|---------------------------------|
E|---------------------------------|

  B5
   W
   |
   /

                         |--3--|  |--3--|        |--3--|
   S     +S   S  S  S S  S  S  S  S  S  S  S  S  S  S  S  S  S
e|-----------------------------------------------------------15/--|
B|-17b19r(17)-15-17p15-0-------------------15h17p15----15h17------|
G|-----------------------14h16p14----14s16----------17------------|
D|--------------------------------16------------------------------|
A|----------------------------------------------------------------|
E|----------------------------------------------------------------|

  G5                             A5
   H                              H
   |                              |
   /                              /

   |--3--|       |-3--|  |--3--|
   S  S  S S  S  S  S S  S  S  S  E     +E   +Q
e|-17s15-----------------------------------------------|
B|-------17-x-17s22s19---19----19----------------------|
G|--------------------------21----21b23r(21)-(21)b23\--|
D|-----------------------------------------------------|
A|-----------------------------------------------------|
E|-----------------------------------------------------|

                                         D5
   H.                                 +E  E
   |                                   |  |
   /                                   /  /

                              |--3--|
   S  S  E  S  S  S  S  S  S  S  S  S  E  E
e|-------------------------------------19----|
B|-------------------------19-22p19----19-22-|
G|----------19h21p19----19----------21-------|
D|-19s21-21----------21----------------------|
A|-------------------------------------------|
E|-------------------------------------------|

   E#7sus4    C#m7/AEsus2/F#
    W                       +W
e|----------------------|-----------*|
B|-22b24================|=([22])----*|
G|----------------------|-----------*|
D|----------------------|-----------*|
A|----------------------|-----------*|
E|----------------------|-----------*|

[Gtr 2]
  |---3---| |---3---|
  Q     Q Q Q Q E S S      W
e|----------------------|-----------*|
B|----------------------|-----------*|
G|--7-----7-7-6-6---4-4-|----4------*|
D|--7-----7-7-6-6---4-4-|----4------*|
A|--5-----5-5-4-4---2-2-|----2------*|
E|--5-----5-5-4-4---2-2-|----2------*|


************************************

| (n)  Ghost note
| x    Dead note
| b    Bend
| p    Pull-off
| ~    Vibrato
| h    Hammer-on
| r    Release
| /    Slide up
| \    Slide down
| *    Natural harmonic  

************************************
Suggest correction
comments
print report bad tab
19 comments total. Showing first comments.
+2 reply
xXDrifterXx 10 Nov 25, 2006 05:14 PM

Nice 5 stars

+5 reply
psyco223 10 Nov 28, 2006 04:23 PM

honestly who has a 26 fret guitar!!!!!!
thats like a ****ing special guitar!

+4 reply
Kepulix 140 Dec 13, 2006 09:06 AM

you bend the 24th one full step up so it sounds like you would play 26th fret

guest
You may want to rate the tab now too:
select rating
Wanna post a correction for this tab? Suggest correction