Oops, an error
Loading. Please wait.

Possession Bass Tab

4 views 1 this week
no commentswrite comment
1 2 3 4 5
3 more votes to show rating
add to favorites
launch autoscroll
font size
0
reset
guitar tuner
Autoscroll
slow
fast
+/-
esc
set tempo
stop
Help us to improve Ultimate-Guitar.com Take our survey!
×
Author
Difficulty
novice
                             DANZIG - POSSESSION

Tabbed by: Rottney (reconssuck)
E-mail: reconssuck@hotmail.de

Artist: Danzig
Song: Possession
Album: Danzig (self titled) 
Bassist: Eerie Von


Tuning: Standard (EADG)


[Verse] x3

G|---------------|---------------|
D|---------------|---------------|
A|---------------|---------------|
E|-5-5-5-5-5-5-5-|-4-4-4-4-4-4-4-|

[Verse Variation]

G|---------------|---------------|
D|---------------|---------------|
A|---------------|---------------|
E|-7----5----7---|-4-4-4-4-4-4-4-|

(alternatively you can accent the guitar riff by playing)

G|---------------|----------------|
D|---------------|----------------|
A|---4-----4---4-|---4------4---4-|
E|-5---5-5---5---|-6----6-6---6---|

G|---------------|----------------|
D|---------------|----------------|
A|---------------|---4------4---4-|
E|-7----5----7---|-6----6-6---6---|

[Verse] x3

G|---------------|---------------|
D|---------------|---------------|
A|---------------|---------------|
E|-5-5-5-5-5-5-5-|-4-4-4-4-4-4-4-|

[Verse Variation]

G|---------------|---------------|
D|---------------|---------------|
A|---------------|---------------|
E|-7----5----7---|-4-4-4-4-4-4-4-|

[Verse] x3

G|---------------|---------------|
D|---------------|---------------|
A|---------------|---------------|
E|-5-5-5-5-5-5-5-|-4-4-4-4-4-4-4-|

[Verse Variation]

G|---------------|---------------|
D|---------------|---------------|
A|---------------|---------------|
E|-7----5----7---|-4-4-4-4-4-4-4-|


[Chorus]

G|---------------|-------------|
D|---------------|-------------|
A|-5-5-5-5-5-5-5-|-7-7-7-7-8-8-|
E|---------------|-------------|

[Verse] x3

G|---------------|---------------|
D|---------------|---------------|
A|---------------|---------------|
E|-5-5-5-5-5-5-5-|-4-4-4-4-4-4-4-|

[Verse Variation]

G|---------------|---------------|
D|---------------|---------------|
A|---------------|---------------|
E|-7----5----7---|-4-4-4-4-4-4-4-|


[Verse] x3

G|---------------|---------------|
D|---------------|---------------|
A|---------------|---------------|
E|-5-5-5-5-5-5-5-|-4-4-4-4-4-4-4-|

[Verse Variation]

G|---------------|---------------|
D|---------------|---------------|
A|---------------|---------------|
E|-7----5----7---|-4-4-4-4-4-4-4-|

[Pre-Chorus] x4 (spiritus-incubus part)

G|-----------------|-----------------|---------------|---------------|
D|-----------------|-----------------|---------------|---------------|
A|-4-4-4-4-4-3-3-3-|-4-4-4-4-4-3-3-3-|-3-3-3-3-3-3-3-|-2-2-2-3-3-3-3-|
E|-----------------|-----------------|---------------|---------------|

[Chorus]

G|---------------|-------------|
D|---------------|-------------|
A|-5-5-5-5-5-5-5-|-7-7-7-7-8-8-|
E|---------------|-------------|

[Chorus Continuation] x3

G|---------------|-------------|
D|---------------|-------------|
A|-8-8-8-8-8-8-8-|-3-3-3-2-2-2-|
E|---------------|-------------|

[Chorus End]

G|-----------------|-------------|
D|-----------------|-------------|
A|-6-6-6-6-6-6-6-6-|-8-8---------|
E|-----------------|-------------|

[Verse] x3

G|---------------|---------------|
D|---------------|---------------|
A|---------------|---------------|
E|-5-5-5-5-5-5-5-|-4-4-4-4-4-4-4-|

[Verse Variation]

G|---------------|---------------|
D|---------------|---------------|
A|---------------|---------------|
E|-7----5----7---|-4-4-4-4-4-4-4-|

[Verse] x3

G|---------------|---------------|
D|---------------|---------------|
A|---------------|---------------|
E|-5-5-5-5-5-5-5-|-4-4-4-4-4-4-4-|

[Verse Variation]

G|---------------|---------------|
D|---------------|---------------|
A|---------------|---------------|
E|-7----5----7---|-4-4-4-4-4-4-4-|

[Pre-Chorus] x4 (spiritus-incubus part)

G|-----------------|-----------------|---------------|---------------|
D|-----------------|-----------------|---------------|---------------|
A|-4-4-4-4-4-3-3-3-|-4-4-4-4-4-3-3-3-|-3-3-3-3-3-3-3-|-2-2-2-3-3-3-3-|
E|-----------------|-----------------|---------------|---------------|

[Chorus]

G|---------------|-------------|
D|---------------|-------------|
A|-5-5-5-5-5-5-5-|-7-7-7-7-8-8-|
E|---------------|-------------|

[Chorus Continuation] x3

G|---------------|-------------|
D|---------------|-------------|
A|-8-8-8-8-8-8-8-|-3-3-3-2-2-2-|
E|---------------|-------------|

[End of Chorus]

G|-----------------|-------------|
D|-----------------|-------------|
A|-6-6-6-6-6-6-6-6-|-8-8---------|
E|-----------------|-------------|
 
[Chorus Continuation] x3

G|---------------|-------------|
D|---------------|-------------|
A|-8-8-8-8-8-8-8-|-3-3-3-2-2-2-|
E|---------------|-------------|

[Outro]

G|---------------|
D|---------------|
A|-6-------------|
E|---------------|



That's all.
Enjoy and Rate.

Suggest correction
Give kudos to tab author, rate the tab!
1 2 3 4 5
comments
print report bad tab
guest
You may want to rate the tab now too:
select rating
Wanna post a correction for this tab? Suggest correction