Oops, an error
Loading. Please wait.

Soul On Fire Bass Tab

version 2
version 2

Whole song

  • The other Bass tab is missing parts, and is full o... Show more

Interactive

10 views 3 this week
no commentswrite comment
1 2 3 4 5
2 more votes to show rating
add to favorites
launch autoscroll
font size
0
reset
guitar tuner
Autoscroll
slow
fast
+/-
esc
set tempo
stop
Help us to improve Ultimate-Guitar.com Take our survey!
×
Author
Difficulty
novice
About this tab version
The other Bass tab is missing parts, and is full of wrong notes in the Chorus as well as most of the second half of the song. It also does not indicate how many times each part should be repeated. Was this info helpful? Yes No
                             DANZIG - Soul On Fire

Tabbed by: Rottney (reconssuck)
E-mail: reconssuck@hotmail.de

Artist: Danzig
Song: Soul On Fire
Album: Danzig (self titled) 
Bassist: Eerie Von


Tuning: Standard (EADG)


[Intro] (bass is low in the mix listen closely)

G|---------|---------|
D|---------|---------|
A|--2------|--2------|
E|---------|---------|

G|-------------------|---------------------|
D|-------------------|---------------------|
A|--2----5----0----5-|--2---------0----5---|
E|-------------------|-------0-------------|


[Verse] x2

G|---------------|---------------|---------------|--------------|
D|---------------|---------------|---------------|--------------|
A|-2-2-2-2-2-2-2-|-5-5-5-5-5-5-5-|-0-0-0-0-0-0-0-|-5--5-5-5-5-5-|
E|---------------|---------------|---------------|--------------|


G|---------------|---------------|---------------|--------------|
D|---------------|---------------|---------------|--------------|
A|-2-2-2-2-2-2-2-|---------------|-0-0-0-0-0-0-0-|-5--5-5-5-5-5-|
E|---------------|-0-------------|---------------|--------------|


[Chorus] x2

G|--------------|--------|-----------|-----------|
D|--------------|--------|-----------|-----------|
A|-2-2-2--5-5-5-|-7------|-----------|-5-5-5-5-5-|
E|--------------|--------|-3-3-3-3-3-|-----------|

[Verse] x2

G|---------------|---------------|---------------|--------------|
D|---------------|---------------|---------------|--------------|
A|-2-2-2-2-2-2-2-|-5-5-5-5-5-5-5-|-0-0-0-0-0-0-0-|-5--5-5-5-5-5-|
E|---------------|---------------|---------------|--------------|


G|---------------|---------------|---------------|--------------|
D|---------------|---------------|---------------|--------------|
A|-2-2-2-2-2-2-2-|---------------|-0-0-0-0-0-0-0-|-5--5-5-5-5-5-|
E|---------------|-0-------------|---------------|--------------|


[Chorus] x4

G|--------------|--------|-----------|-----------|
D|--------------|--------|-----------|-----------|
A|-2-2-2--5-5-5-|-7------|-----------|-5-5-5-5-5-|
E|--------------|--------|-3-3-3-3-3-|-----------|

[Bridge]


G|--------|--------|--------|--------|
D|--------|--------|--------|--------|
A|-2------|--------|-0------|-5------|
E|--------|-0------|--------|--------|

G|---------------|---------------|---------------|--------------|
D|---------------|---------------|---------------|--------------|
A|-2-2-2-2-2-2-2-|---------------|-0-0-0-0-0-0-0-|-5--5-5-5-5-5-|
E|---------------|-0-0-0-0-0-0-0-|---------------|--------------|

G|---------------|---------------|---------------|--------------|
D|---------------|---------------|---------------|--------------|
A|-2-2-2-2-2-2-2-|---------------|-0-0-0-0-0-0-0-|-5--5-5-5-5-5-|
E|---------------|-0-------------|---------------|--------------|

[Chorus] x4

G|--------------|--------|-----------|-----------|
D|--------------|--------|-----------|-----------|
A|-2-2-2--5-5-5-|-7------|-----------|-5-5-5-5-5-|
E|--------------|--------|-3-3-3-3-3-|-----------|

[Solo Backing 1] x8


G|---------------|---------------|
D|---------------|---------------|
A|---------------|---------------|
E|-2--2-2-2--2-2-|-2--2-2-2--2-2-|

[Solo Backing 2] x2

G|---------------|---------------|
D|---------------|---------------|
A|---------------|---------------|
E|-3--3-3-3--3-3-|-3--3-3-3--3-3-|

[Solo Backing 1] x2

G|---------------|---------------|
D|---------------|---------------|
A|---------------|---------------|
E|-2--2-2-2--2-2-|-2--2-2-2--2-2-|

[End of Solo]

G|--------|--------|
D|--------|--------|
A|--------|-5------|
E|-3------|--------|

[Chorus] x3

G|--------------|--------|-----------|-----------|
D|--------------|--------|-----------|-----------|
A|-2-2-2--5-5-5-|-7------|-----------|-5-5-5-5-5-|
E|--------------|--------|-3-3-3-3-3-|-----------|

[Alternate Chorus]


G|--------------|--------|-----------|-----------|
D|--------------|--------|-----------|-----------|
A|-2-2-2--5-5-5-|-7------|-----------|-5---------|
E|--------------|--------|-3---------|-----------|


[Outro Solo Backing] x16

G|--------------------|
D|--------------------|
A|--------------------|
E|-0--0-0-0-0-0-0-0-0-|

[End of Solo]

G|--------|--------|
D|--------|--------|
A|--------|-5------|
E|-3------|--------|

[Outro] 

G|-------------|-------------|-------------|-------------|
D|-------------|-------------|-------------|-------------|
A|-7---------7-|-----------7-|-----------7-|-----------7-|
E|---0-0-0-0---|---0-0-0-0---|---0-0-0-0---|---0-0-0-0---|




That's all.
Enjoy and Rate.
Suggest correction
Give kudos to tab author, rate the tab!
1 2 3 4 5
comments
print report bad tab
guest
You may want to rate the tab now too:
select rating
Wanna post a correction for this tab? Suggest correction