Oops, an error
Loading. Please wait.

Twist Of Cain Tab

version 2
version 2

Whole song

Interactive

by Danzig
53,211 views 84 this week
13 commentsread comments
1 2 3 4 5
x 31
add to favorites
×
Save as Personal and add changes to this tab that will be seen only by you. Learn more ›
×
You can save this tab as Personal to edit and correct it or add notes. All changes will be seen only by you. Learn more »
save as personal
new!
launch autoscroll
font size
0
reset
how to read this tab
guitar tuner
backing track
0:00
0:00
Autoscroll
slow
fast
+/-
esc
set tempo
stop
Author
[Intro]

E|-----------------|
B|-----------------|
G|-----------------|
D|-----------------|
A|-6^--------------|
E|-----------------|


[Main Riff/Chorus Riff]

E|-----------------|-----------------|-----------------|-----------------|
B|-----------------|-----------------|-----------------|-----------------|
G|-----------------|-----------------|-----------------|-8--8--8---------|
D|-----------------|-AH--------------|-----------------|-8--8--8---------|
A|-7---0-6-0-3-0-0-|-7---0-6-0-3-0-0-|-7-7-0-6-0-3-0-0-|-6--6--6-----6^--|
E|-----------------|-----------------|-----------------|-6--6--6---------|
 |                                                                       |
 |                                                                       |
G|-----------------|-----------------|-----------------|-----------------|
D|-----------------|-----------------|-----------------|-----------------|
A|-0-0-0-0-0-0-0-0-|-0-0-0-0-0-0-0-0-|-0-0-0-0-0-0-0-0-|-6--6--6-----6---|
E|-----------------|-----------------|-----------------|-----------------|


[Verse]

e|--------------------------|--------------------------|
B|--------------------------|--------------------------|
G|--------------------------|--------------------------|
D|--------------------------|-------------------15\----|
A|--7--7--7-10-10-10-10-10--|--7--7--7-10-10-10-15\----|
E|--5--5--5--8--8--8--8--8--|--5--5--5--8--8--8-15\----|
 |  PM---------------------------------------->        |
 |                                                     |
G|--------------------------|--------------------------|
D|--------------------------|--------------------------|
A|--7--7--7-10-10-10-10-10--|--7--7--7-10-10-10--------|
E|--5--5--5--8--8--8--8--8--|--5--5--5--8--8--8-15\----|


[Verse End]

e|--------------------------|--------------------------|
B|--------------------------|--------------------------|
G|--------------------------|--8----8----8-------------|
D|--------------------------|--8----8----8-------------|
A|--7--7--7-10-10-10-10-10--|--6----6----6-------6^----|
E|--5--5--5--8--8--8--8--8--|--6----6----6-------------|
 |  PM------------------->                             |
 |                                                     |
G|--------------------------|--------------------------|
D|--------------------------|--------------------------|
A|--------------------------|--6----6----6-------6-----|
E|--5--5--5--8--8--8--8--8--|--------------------------|


[Bridge]

E|-----------------|-----------------|-----------------|-----------------|
B|-----------------|-----------------|-----------------|-----------------|
G|-2---------------|-----------------|-8---------------|-----------------|
D|-2---------------|-----------------|-8---------------|-5-5-5---7--7--7-|
A|-0---------------|-3^--0-------0---|-6---------------|-3-3-3-0-5--5--5-|
E|-----------------|---------3^------|-6---------------|-----------------|
 |                                                                       |
 |                                                                       |
G|-----------------|-----------------|-----------------|-----------------|
D|-----------------|-----------------|-----------------|-----------------|
A|-0---------------|-3^--0-------0---|-6---------------|-3-3-3-0-5--5--5-|
E|-----------------|---------3^------|-----------------|-----------------|



 intro
 main riff (4x)
 verse     (3x)
 verse end
 chorus    (2x)
 verse     (3x)
 verse end
 chorus    (2x)
 bridge    (4x)
 chorus    (2x)
 verse     (3x)
 verse end
 chorus    (2x)
 bridge    (6x)
 A         (4x)


************************************

| \  Slide down

************************************
Suggest correction
comments
print report bad tab
13 comments total. Showing first comments.
+1 reply
Dammit Missed T 70 Aug 26, 2004 08:00 PM

Brilliant tab mate, thanks for this, just got the album - hadn't heard of them until my mate showed my some of their songs.

+1 reply
scumfuc_69 775 Sep 09, 2004 08:00 PM

this is right, excpet one thing:
the bassline for the 1st two bars of the bridge are wrong.
The bass just plays an "A" the 1st 2 bars

+1 reply
evildemonic 10 Jan 07, 2007 09:28 AM

Thanks for the great tab! Spot on!

guest
You may want to rate the tab now too:
select rating
Wanna post a correction for this tab? Suggest correction