Oops, an error
Loading. Please wait.

Until You Call On The Dark Bass Tab

13 views 1 this week
no commentswrite comment
1 2 3 4 5
3 more votes to show rating
add to favorites
launch autoscroll
font size
0
reset
guitar tuner
Autoscroll
slow
fast
+/-
esc
set tempo
stop
Help us to improve Ultimate-Guitar.com Take our survey!
×
Author
Difficulty
Tuning
novice
D# G# C# F# A# D#
                             DANZIG - UNTIL YOU CALL ON THE DARK

Tabbed by: Rottney (reconssuck)
E-mail: reconssuck@hotmail.de

Artist: Danzig
Song: Until You Call On The Dark
Album: Danzig 4p (1994)
Bassist: Eerie Von


Tuning: Half-Step Down




[Intro]

F#|--------|--------|---------|--------|
C#|--------|--------|---------|--------|
G#|--------|--------|---------|--------|
D#|-5------|-5------|-5-------|-5------|

[Verse]

F#|--------|-------|--------|--------|--------|--------|--------|--------|--------|--------|
C#|--------|-------|--------|--------|--------|--------|--------|--------|--------|--------|
G#|--------|-------|--------|--------|--------|--------|-5------|--------|--------|-5------|
D#|-5------|-5-----|-5------|-5------|-5------|-5------|--------|-5------|-5------|--------|


[Chorus] x6

F#|----------------|----------------|
C#|----------------|----------------|
G#|----------------|----------------|
D#|-5-5-5-5-5-5-5-5|-5-5-5-5-5-5-5-5|

[Verse 2]

F#|--------|-------|--------|--------|--------|--------|--------|--------|--------|--------|--------|------|
C#|--------|-------|--------|--------|--------|--------|--------|--------|--------|--------|--------|------|
G#|--------|-------|--------|--------|--------|--------|--------|--------|-5------|--------|--------|-5----|
D#|-5------|-5-----|-5------|-5------|-5------|-5------|-5------|-5------|--------|-5------|-5------|------|

[Chorus] x17

F#|----------------|----------------|
C#|----------------|----------------|
G#|----------------|----------------|
D#|-5-5-5-5-5-5-5-5|-5-5-5-5-5-5-5-5|



That's all.
Enjoy and Rate.
Suggest correction
Give kudos to tab author, rate the tab!
1 2 3 4 5
comments
print report bad tab
guest
You may want to rate the tab now too:
select rating
Wanna post a correction for this tab? Suggest correction