Oops, an error
Loading. Please wait.

You Versus The Sea chords

3,019 views 1 this week
3 commentsread comments
1 2 3 4 5
x 3
add to favorites
×
Save as Personal and add changes to this tab that will be seen only by you. Learn more ›
×
You can save this tab as Personal to edit and correct it or add notes. All changes will be seen only by you. Learn more »
launch autoscroll
font size
0
reset
transpose
0
reset
display chords
guitar tuner
edit
Autoscroll
slow
fast
+/-
esc
set tempo
stop
Difficulty
intermediate
Strumming
There is no strumming pattern for this song yet. and get +5 IQ
INTRO:

E|------------X-----------------X----------------|
A|------------X-----------------X----------------|
D|------------0---2-------------0---2------------|
G|--------2---2---2---------2---2---2------------|
B|----0h2-----0---------0h2-----0----------------|
E|------------4-----------------4----------------|


VERSE:

E|-----X---/---X---X-----|
A|-----5---/---12--5-----|
D|-----7---/---14--4-----|      (X4)
G|-----6---/---13--6-----|
B|-----0---/---0---0-----|
E|-----0---/---0---0-----|

CHORUS:
Strum 1 time for each chord
E|-----X---/---X---X-----|
A|-----5---/---12--5-----|
D|-----7---/---14--4-----|
G|-----6---/---13--6-----|
B|-----0---/---0---0-----|
E|-----0---/---0---0-----|

BRIDGE:

E|---X---    ---X-----|
A|---12--    ---5-----|
D|---14--    ---7-----|        (X4)
G|---13--    ---6-----|
B|---X---    ---X-----|
E|---X--- X7 ---X-----| X7


OUTRO:
Strum 1 time for each chord
E|-----X---/---X---X-----|
A|-----5---/---12--5-----|
D|-----7---/---14--4-----|
G|-----6---/---13--6-----|
B|-----0---/---0---0-----|
E|-----0---/---0---0-----|

I hope thats not oo confusing and i hope it helps!
i recommend you listen to the song for strum pattern.
Also you could check out my video i made for it for more help:
http://www.youtube.com/watch?v=0De5d3UIXz0
Suggest correction
Creating personal tab
Creating personal tab
You can edit any tab online and save it as your Personal.

You can edit, replace or remove any tab part or add personal notes – all changes will be seen only by you.

Personal tabs can be accessed anytime from any device, even offline.
Learn more »
Give kudos to tab author, rate the tab!
1 2 3 4 5
comments
print report bad tab
3 comments total.
0 reply
Scythe3 76 Aug 28, 2007 09:59 AM

Great tab, except that you posted strings in the reverse order...
It's kinda confusing, but once you get through it, it sounds great.

0 reply
LithiumPostScpt 30 Jun 07, 2009 10:37 AM

You have your tab upside down!

0 reply
LithiumPostScpt 30 Jun 07, 2009 10:37 AM

INTRO:

e|------------4-------|
B|----0h2-----0-------|
G|--------2---2---2---|
D|------------0---2---|
A|------------x-------|
E|------------x-------|

VERSE:

e|-----0---/---0---0-----|
B|-----0---/---0---0-----|
G|-----6---/---13--6-----| (X4)
D|-----7---/---14--4-----|
A|-----5---/---12--5-----|
E|-----x---/---x---x-----|

CHORUS:
Strum 1 time for each chord
e|-----0---/---0---0-----|
B|-----0---/---0---0-----|
G|-----6---/---13--6-----|
D|-----7---/---14--4-----|
A|-----5---/---12--5-----|
E|-----x---/---x---x-----|

BRIDGE:

e|---X--- ---X-----|
B|---x--- ---x-----|
G|---13-- ---6-----| (X4)
D|---14-- ---7-----|
A|---12-- ---5-----|
E|---X--- X7 ---X-----| X7

OUTRO:
Strum 1 time for each chord

e|-----0---/---0---0-----|
B|-----0---/---0---0-----|
G|-----6---/---13--6-----| (X4)
D|-----7---/---14--4-----|
A|-----5---/---12--5-----|
E|-----x---/---x---x-----|

guest
Wanna post a correction for this tab? Suggest correction