Oops, an error
Loading. Please wait.

Sedia Elettrica Bass Tab

by Dari
25 views 6 this week
no commentswrite comment
1 2 3 4 5
2 more votes to show rating
add to favorites
launch autoscroll
font size
0
reset
guitar tuner
Autoscroll
slow
fast
+/-
esc
set tempo
stop
Help us to improve Ultimate-Guitar.com Take our survey!
×
Author
Difficulty
novice
Tabbed by: JimBlenderBR


r = Let it Ring
/ = up slide
p = pull off
rest = no bass


Enjoy!


[INTRO]

G|-----------------|
D|-----------------|
A|---- No Bass ----|
E|-----------------|


[VERSE 1]

G|----------------------------------------------------------|
D|----------------------------------------------------------|
A|-8-8-8-8--8-8-8-8--10-10-10-10--0-0-0-0--0-0-0-0--5-5-5-5-| x4
E|----------------------------------------------------------|


[PRE-CHORUS 1]

G|----------------------|
D|----------------------|
A|-8-8-8-8--10-10-10-10-| 
E|----------------------|


[CHORUS 1]

G|--------------------------------------------------------------------------------------------------|
D|--------------------------------------------------------------------------------------------------|
A|-8-8-8-8-8-8-8-8-8-------10-10-10-10-10-10-10-10-10-2-2-2-0-0-0-0-0-0-0-0-0-2-2-3-3-3-3-3-3-3-3-3-|
E|-------------------8-8-8--------------------------------------------------------------------------|

G|-------------------------------------------------------------------------------------|
D|-------------------------------------------------------------------------------------|
A|-8-8-8-8-8-8-8-8-8--10-10-10-10-10-10-10-10--0-0-0-0-0-0-0-0-0-2-2-3-3-3-3-3-3-3-3-3-|
E|-------------------------------------------------------------------------------------|


[POST-CHORUS 1]

G|----|
D|----|
A|-8r-| 
E|----|


[VERSE 2]

G|----------------------------------------------------------|
D|----------------------------------------------------------|
A|-8-8-8-8--8-8-8-8--10-10-10-10--0-0-0-0--0-0-0-0--5-5-5-5-| x3
E|----------------------------------------------------------|

G|--------------------------------------------------------|
D|--------------------------------------------------------|
A|-8-8-8-8--8-8-8-8--10-10-10-10--0-0-0-0-0-0-0-0-5-5-5-5-|
E|--------------------------------------------------------|


[CHORUS 1]

G|--------------------------------------------------------------------------------------------------|
D|--------------------------------------------------------------------------------------------------|
A|-8-8-8-8-8-8-8-8-8-------10-10-10-10-10-10-10-10-10-2-2-2-0-0-0-0-0-0-0-0-0-2-2-3-3-3-3-3-3-3-3-3-|
E|-------------------8-8-8--------------------------------------------------------------------------|

G|-------------------------------------------------------------------------------------|
D|-------------------------------------------------------------------------------------|
A|-8-8-8-8-8-8-8-8-8--10-10-10-10-10-10-10-10--0-0-0-0-0-0-0-0-0-2-2-3-3-3-3-3-3-3-3-3-|
E|-------------------------------------------------------------------------------------|

G|--------------------------------------------------------------------------------------------------|
D|--------------------------------------------------------------------------------------------------|
A|-8-8-8-8-8-8-8-8-8-------10-10-10-10-10-10-10-10-10-2-2-2-0-0-0-0-0-0-0-0-0-2-2-3-3-3-3-3-3-3-3-3-|
E|-------------------8-8-8--------------------------------------------------------------------------|


[POST-CHORUS 1]

G|----|
D|----|
A|-8r-| 
E|----|


[BRIDGE]

G|----------------------------------------------------------------------------|
D|----------------------------------------------------------------------------|
A|-----------------------8-8--8-8----5-8-8--8-8--5--8-8--8-8----5-8-8--8-8--5-|  
E|-Rest-----------------------------------------------------------------------|


[CHORUS 3]

G|------------------------------------------------------------------------------------|
D|------------------------------------------------------------------------------------|
A|-8r---------------------------------------2p0-0-0-0-0-0-0-0-0-2-2-3-3-3-3-3-3-3-3-3-|
E|-------------------8/15r------------------------------------------------------------|

G|-------------------------------------------------------------------------------------|
D|-------------------------------------------------------------------------------------|
A|-8-8-8-8-8-8-8-8-8--10-10-10-10-10-10-10-10--0-0-0-0-0-0-0-0-0-2-2-3-3-3-3-3-3-3-3-3-| x2
E|-------------------------------------------------------------------------------------|

G|--------------------------------------------------------------------------------------------------|
D|-------------------10-10-10-----------------------------------------------------------------------|
A|-8-8-8-8-8-8-8-8-8----------10-10-10-10-10-10-10-10-2-2-2-0-0-0-0-0-0-0-0-0-2-2-3-3-3-3-3-3-3-3-3-|  x2
E|--------------------------------------------------------------------------------------------------|


[END NOTE]

G|----|
D|----|
A|-8r-| 
E|----|

__________
Hope you liked!

Tabbed by: JimBlenderBR
Suggest correction
Give kudos to tab author, rate the tab!
1 2 3 4 5
comments
print report bad tab
guest
You may want to rate the tab now too:
select rating
Wanna post a correction for this tab? Suggest correction