Oops, an error
Loading. Please wait.

Tutto Regolare Tab

by Dari
3,569 views 3 this week
no commentswrite comment
1 2 3 4 5
please rate
add to favorites
launch autoscroll
font size
0
reset
how to read this tab
guitar tuner
Autoscroll
slow
fast
+/-
esc
set tempo
stop
Help us to improve Ultimate-Guitar.com Take our survey!
×
Author
Palm mute = .

Intro (After the intro of the keyboard) : 

e|----------------|----------------|----------------|----------------|
B|----------------|----------------|----------------|----------------|
G|----------------|----------------|----------------|----------------| 
D|7-7-7-7-7-7-7-7-|7-7-7-7-7-7-7-7-|0-0-0-0-0-0-0-0-|0-0-0-0-0-0-0-0-|x1
A|7-7-7-7-7-7-7-7-|7-7-7-7-7-7-7-7-|0-0-0-0-0-0-0-0-|0-0-0-0-0-0-0-0-|
D|7-7-7-7-7-7-7-7-|7-7-7-7-7-7-7-7-|0-0-0-0-0-0-0-0-|0-0-0-0-0-0-0-0-|

e|----------------|----------------|----------------|----------------|
B|----------------|----------------|----------------|----------------|
G|----------------|----------------|----------------|----------------| 
D|4-4-4-4-4-4-4-4-|4-4-4-4-4-4-4-4-|0-0-0-0-0-0-0-0-|0-0-0-0-0-0-0-0-|x1
A|4-4-4-4-4-4-4-4-|4-4-4-4-4-4-4-4-|0-0-0-0-0-0-0-0-|0-0-0-0-0-0-0-0-|
D|4-4-4-4-4-4-4-4-|4-4-4-4-4-4-4-4-|0-0-0-0-0-0-0-0-|0-0-0-0-0-0-0-0-|

e|----------------|
B|----------------|
G|----------------| 
D|4~--------------|x1
A|4~--------------|
D|4~--------------|


Verse :

e|----------------|----------------|----------------|----------------|
B|----------------|----------------|----------------|----------------|
G|----------------|----------------|----------------|----------------| 
D|----------------|----------------|----------------|----------------|x1
A|----------------|----------------|----------------|----------------|
D|4-4-4-4-4-4-4-4-|4-4-4-4-4-4-4-4-|0-0-0-0-0-0-0-0-|0-0-0-0-0-0-0-0-|

e|----------------|----------------|----------------|----------------|
B|----------------|----------------|----------------|----------------|
G|----------------|----------------|----------------|----------------| 
D|----------------|----------------|----------------|----------------|x1
A|----------------|----------------|----------------|----------------|
D|7-7-7-7-7-7-7-7-|7-7-7-7-7-7-7-7-|6-6-6-6-6-6-6-6-|6-6-6-6-6-6-6-6-|

e|----------------|----------------|----------------|----------------|
B|----------------|----------------|----------------|----------------|
G|----------------|----------------|----------------|----------------| 
D|----------------|----------------|----------------|----------------|x1
A|4-4-4-4---------|----------------|0-0-0-0---------|----------------|
D|4-4-4-4---------|----------------|0-0-0-0---------|----------------|
  . . . .                           . . . .         

e|----------------|----------------|----------------|----------------|
B|----------------|----------------|----------------|----------------|
G|----------------|----------------|----------------|----------------| 
D|----------------|----------------|----------------|----------------|x1
A|7-7-7-7---------|----------------|6-6-6-6---------|----------------|
D|7-7-7-7---------|----------------|6-6-6-6---------|----------------|
  . . . .                           . . . .          


Pre-Chorus :

e|----------------|----------------|----------------|----------------|
B|----------------|----------------|----------------|----------------|
G|----------------|----------------|----------------|----------------| 
D|7-7-7-7-7-7-7-7-|7-7-7-7-7-7-7-7-|6-6-6-6-6-6-6-6-|0-0-0-0-0-0-0-0-|x2
A|7-7-7-7-7-7-7-7-|7-7-7-7-7-7-7-7-|6-6-6-6-6-6-6-6-|0-0-0-0-0-0-0-0-|
D|7-7-7-7-7-7-7-7-|7-7-7-7-7-7-7-7-|6-6-6-6-6-6-6-6-|0-0-0-0-0-0-0-0-|

Chorus (x2) :

e|----------------|----------------|----------------|----------------|
B|----------------|----------------|----------------|----------------|
G|----------------|----------------|----------------|----------------| 
D|7-7-7-7-7-7-7-7-|7-7-7-7-7-7-7-7-|0-0-0-0-0-0-0-0-|0-0-0-0-0-0-0-0-|x1
A|7-7-7-7-7-7-7-7-|7-7-7-7-7-7-7-7-|0-0-0-0-0-0-0-0-|0-0-0-0-0-0-0-0-|
D|7-7-7-7-7-7-7-7-|7-7-7-7-7-7-7-7-|0-0-0-0-0-0-0-0-|0-0-0-0-0-0-0-0-|

e|----------------|----------------|----------------|----------------|
B|----------------|----------------|----------------|----------------|
G|----------------|----------------|----------------|----------------| 
D|4-4-4-4-4-4-4-4-|4-4-4-4-4-4-4-4-|0-0-0-0-0-0-0-0-|0-0-0-0-0-0-0-0-|x1
A|4-4-4-4-4-4-4-4-|4-4-4-4-4-4-4-4-|0-0-0-0-0-0-0-0-|0-0-0-0-0-0-0-0-|
D|4-4-4-4-4-4-4-4-|4-4-4-4-4-4-4-4-|0-0-0-0-0-0-0-0-|0-0-0-0-0-0-0-0-|

Post-Chorus (x2) :

e|----------------|----------------|----------------|----------------|
B|----------------|----------------|----------------|----------------|
G|----------------|----------------|----------------|----------------| 
D|4-4-4-4-4-4-4-4-|4-4-4-4-4-4-4-4-|0-0-0-0-0-0-0-0-|0-0-0-0-0-0-0-0-|x1
A|4-4-4-4-4-4-4-4-|4-4-4-4-4-4-4-4-|0-0-0-0-0-0-0-0-|0-0-0-0-0-0-0-0-|
D|4-4-4-4-4-4-4-4-|4-4-4-4-4-4-4-4-|0-0-0-0-0-0-0-0-|0-0-0-0-0-0-0-0-|

e|----------------|----------------|----------------|----------------|
B|----------------|----------------|----------------|----------------|
G|----------------|----------------|----------------|----------------| 
D|7-7-7-7-7-7-7-7-|7-7-7-7-7-7-7-7-|6-6-6-6-6-6-6-6-|6-6-6-6-6-6-6-6-|x1
A|7-7-7-7-7-7-7-7-|7-7-7-7-7-7-7-7-|6-6-6-6-6-6-6-6-|6-6-6-6-6-6-6-6-|
D|7-7-7-7-7-7-7-7-|7-7-7-7-7-7-7-7-|6-6-6-6-6-6-6-6-|6-6-6-6-6-6-6-6-|

Verse :

e|----------------|----------------|----------------|----------------|
B|----------------|----------------|----------------|----------------|
G|----------------|----------------|----------------|----------------| 
D|----------------|----------------|----------------|----------------|x1
A|----------------|----------------|----------------|----------------|
D|4-4-4-4-4-4-4-4-|4-4-4-4-4-4-4-4-|0-0-0-0-0-0-0-0-|0-0-0-0-0-0-0-0-|

e|----------------|----------------|----------------|----------------|
B|----------------|----------------|----------------|----------------|
G|----------------|----------------|----------------|----------------| 
D|----------------|----------------|----------------|----------------|x1
A|----------------|----------------|----------------|----------------|
D|7-7-7-7-7-7-7-7-|7-7-7-7-7-7-7-7-|6-6-6-6-6-6-6-6-|6-6-6-6-6-6-6-6-|

e|----------------|----------------|----------------|----------------|
B|----------------|----------------|----------------|----------------|
G|----------------|----------------|----------------|----------------| 
D|----------------|----------------|----------------|----------------|x1
A|4-4-4-4---------|----------------|0-0-0-0---------|----------------|
D|4-4-4-4---------|----------------|0-0-0-0---------|----------------|
  . . . .                           . . . .         

e|----------------|----------------|----------------|----------------|
B|----------------|----------------|----------------|----------------|
G|----------------|----------------|----------------|----------------| 
D|----------------|----------------|----------------|----------------|x1
A|7-7-7-7---------|----------------|6-6-6-6---------|----------------|
D|7-7-7-7---------|----------------|6-6-6-6---------|----------------|
  . . . .                           . . . .          


Pre-Chorus :

e|----------------|----------------|----------------|----------------|
B|----------------|----------------|----------------|----------------|
G|----------------|----------------|----------------|----------------| 
D|7-7-7-7-7-7-7-7-|7-7-7-7-7-7-7-7-|6-6-6-6-6-6-6-6-|0-0-0-0-0-0-0-0-|x2
A|7-7-7-7-7-7-7-7-|7-7-7-7-7-7-7-7-|6-6-6-6-6-6-6-6-|0-0-0-0-0-0-0-0-|
D|7-7-7-7-7-7-7-7-|7-7-7-7-7-7-7-7-|6-6-6-6-6-6-6-6-|0-0-0-0-0-0-0-0-|

Chorus (x2) :

e|----------------|----------------|----------------|----------------|
B|----------------|----------------|----------------|----------------|
G|----------------|----------------|----------------|----------------| 
D|7-7-7-7-7-7-7-7-|7-7-7-7-7-7-7-7-|0-0-0-0-0-0-0-0-|0-0-0-0-0-0-0-0-|x1
A|7-7-7-7-7-7-7-7-|7-7-7-7-7-7-7-7-|0-0-0-0-0-0-0-0-|0-0-0-0-0-0-0-0-|
D|7-7-7-7-7-7-7-7-|7-7-7-7-7-7-7-7-|0-0-0-0-0-0-0-0-|0-0-0-0-0-0-0-0-|

e|----------------|----------------|----------------|----------------|
B|----------------|----------------|----------------|----------------|
G|----------------|----------------|----------------|----------------| 
D|4-4-4-4-4-4-4-4-|4-4-4-4-4-4-4-4-|0-0-0-0-0-0-0-0-|0-0-0-0-0-0-0-0-|x1
A|4-4-4-4-4-4-4-4-|4-4-4-4-4-4-4-4-|0-0-0-0-0-0-0-0-|0-0-0-0-0-0-0-0-|
D|4-4-4-4-4-4-4-4-|4-4-4-4-4-4-4-4-|0-0-0-0-0-0-0-0-|0-0-0-0-0-0-0-0-|

Post-Chorus (x2) :

e|----------------|----------------|----------------|----------------|
B|----------------|----------------|----------------|----------------|
G|----------------|----------------|----------------|----------------| 
D|4-4-4-4-4-4-4-4-|4-4-4-4-4-4-4-4-|0-0-0-0-0-0-0-0-|0-0-0-0-0-0-0-0-|x1
A|4-4-4-4-4-4-4-4-|4-4-4-4-4-4-4-4-|0-0-0-0-0-0-0-0-|0-0-0-0-0-0-0-0-|
D|4-4-4-4-4-4-4-4-|4-4-4-4-4-4-4-4-|0-0-0-0-0-0-0-0-|0-0-0-0-0-0-0-0-|

e|----------------|----------------|----------------|----------------|
B|----------------|----------------|----------------|----------------|
G|----------------|----------------|----------------|----------------| 
D|7-7-7-7-7-7-7-7-|7-7-7-7-7-7-7-7-|6-6-6-6-6-6-6-6-|6-6-6-6-6-6-6-6-|x1
A|7-7-7-7-7-7-7-7-|7-7-7-7-7-7-7-7-|6-6-6-6-6-6-6-6-|6-6-6-6-6-6-6-6-|
D|7-7-7-7-7-7-7-7-|7-7-7-7-7-7-7-7-|6-6-6-6-6-6-6-6-|6-6-6-6-6-6-6-6-|

Outro (x2) :
e|----------------|----------------|----------------|----------------|
B|----------------|----------------|----------------|----------------|
G|----------------|----------------|----------------|----------------| 
D|4-4-4-4-4-4-4-4-|4-4-4-4-4-4-4-4-|0-0-0-0-0-0-0-0-|0-0-0-0-0-0-0-0-|x1
A|4-4-4-4-4-4-4-4-|4-4-4-4-4-4-4-4-|0-0-0-0-0-0-0-0-|0-0-0-0-0-0-0-0-|
D|4-4-4-4-4-4-4-4-|4-4-4-4-4-4-4-4-|0-0-0-0-0-0-0-0-|0-0-0-0-0-0-0-0-|

e|----------------|----------------|----------------|----------------|
B|----------------|----------------|----------------|----------------|
G|----------------|----------------|----------------|----------------| 
D|7-7-7-7-7-7-7-7-|7-7-7-7-7-7-7-7-|6-6-6-6-6-6-6-6-|6-6-6-6-6-6-6-6-|x1
A|7-7-7-7-7-7-7-7-|7-7-7-7-7-7-7-7-|6-6-6-6-6-6-6-6-|6-6-6-6-6-6-6-6-|
D|7-7-7-7-7-7-7-7-|7-7-7-7-7-7-7-7-|6-6-6-6-6-6-6-6-|6-6-6-6-6-6-6-6-|
Suggest correction
Give kudos to tab author, rate the tab!
1 2 3 4 5
comments
print report bad tab
guest
You may want to rate the tab now too:
select rating
Wanna post a correction for this tab? Suggest correction