Oops, an error
Loading. Please wait.

Wale Tanto Wale Tab

by Dari
7,228 views 9 this week
1 commentread comment
1 2 3 4 5
2 more votes to show rating
add to favorites
launch autoscroll
font size
0
reset
how to read this tab
guitar tuner
Autoscroll
slow
fast
+/-
esc
set tempo
stop
Help us to improve Ultimate-Guitar.com Take our survey!
×
Author
Intro:

Guitar 1 :
e|----------------|----------------|----------------|----------------|
B|----------------|----------------|----------------|----------------|
G|----------------|----------------|----------------|----------------| 
D|----------------|----------------|----------------|----------------|x1
A|4-------4-------|6-------6-------|----------------|----------------|
D|----------------|----------------|4-------4-------|3-------3-------|

Guitar 2 :
e|2-1-----2-1-----|2-1-----2-1-----|2-1----2-1------|2-1-------------|
B|----2-------2---|----2-------2---|----2------2----|----2-----------|
G|------1-------1-|------1-------1-|------1------1--|------1---------| 
D|----------------|----------------|----------------|----------------|x1
A|----------------|----------------|----------------|----------------|
D|----------------|----------------|----------------|----------------|

Guitar 1 :
e|----------------|----------------|----------------|----------------|
B|----------------|----------------|----------------|----------------|
G|10--108---8-8-6-|13---1313131313-|8---8-6---6-108-|--8-8---108---6-| 
D|----------------|----------------|----------------|----------------|x1
A|8---8-6---6-6-4-|11---1111111111-|6---6-4---4-8-6-|--6-6---8-6---4-|
D|----------------|----------------|----------------|----------------|

Guitar 2 :
e|----------------|----------------|----------------|----------------|
B|----------------|----------------|----------------|----------------|
G|----------------|----------------|----------------|----------------| 
D|4-4-4-4-4-4-4-4-|3-3-3-3-3-3-3-3-|8-8-8-8-8-8-8-8-|6-6-6-6-6-6-6-6-|x1
A|4-4-4-4-4-4-4-4-|3-3-3-3-3-3-3-3-|8-8-8-8-8-8-8-8-|6-6-6-6-6-6-6-6-|
D|4-4-4-4-4-4-4-4-|3-3-3-3-3-3-3-3-|8-8-8-8-8-8-8-8-|6-6-6-6-6-6-6-6-|

Guitar 1 :
e|----------------|----------------|----------------|----------------|
B|----------------|----------------|----------------|----------------|
G|10--108---8-8-6-|13---1313131313-|8---8-6---6-108-|--8-8---108---6-| 
D|----------------|----------------|----------------|----------------|x1
A|8---8-6---6-6-4-|11---1111111111-|6---6-4---4-8-6-|--6-6---8-6---4-|
D|----------------|----------------|----------------|----------------|

Guitar 2 :
e|----------------|----------------|----------------|----------------|
B|----------------|----------------|----------------|----------------|
G|----------------|----------------|----------------|6-6-6-6-6-6-6-6-| 
D|4-4-4-4-4-4-4-4-|3-3-3-3-3-3-3-3-|8-8-8-8-8-8-8-8-|6-6-6-6-6-6-6-6-|x1
A|4-4-4-4-4-4-4-4-|3-3-3-3-3-3-3-3-|8-8-8-8-8-8-8-8-|4-4-4-4-4-4-4-4-|
D|4-4-4-4-4-4-4-4-|3-3-3-3-3-3-3-3-|8-8-8-8-8-8-8-8-|----------------|

Verse (there is no guitar, but you can play it) :

Guitar 1 :
e|----------------|----------------|----------------|----------------|
B|----------------|----------------|----------------|----------------|
G|----------------|----------------|----------------|----------------| 
D|----------------|----------------|----------------|----------------|x1
A|----------------|----------------|----------------|------------9---|
D|4-4-4-4-4-4-4-4-|4-4-4-4-4-4-4-4-|4-4-4-4-4-4-4-4-|4-4-4-4-4-------|

Guitar 1 :
e|----------------|----------------|----------------|----------------|
B|----------------|----------------|----------------|----------------|
G|----------------|----------------|----------------|----------------| 
D|----------------|----------------|----------------|----------------|x3
A|----------------|----------------|----------------|----------------|
D|4-4-4-4-4-4-4-4-|4-4-4-4-4-4-4-4-|4-4-4-4-4-4-4-4-|4-4-4-4-4-4-4-4-|

Pre-Chorus:

Guitar 1 :
e|----------------|----------------|----------------|----------------|
B|----------------|----------------|11--------------|9---------------|
G|11--------------|10--------------|10--------------|8---------------| 
D|11--------------|10--------------|8---------------|6---------------|x1
A|9---------------|8---------------|----------------|----------------|
D|----------------|----------------|----------------|----------------|

Chorus :

Guitar 1 :
e|----------------|----------------|----------------|----------------|
B|----------------|----------------|11--11111111111-|14--141414141414|
G|11--111111111111|10--101010101010|x---x-x-x-x-x-x-|x---x-x-x-x-x-x-| 
D|x---x-x-x-x-x-x-|x---x-x-x-x-x-x-|8---8-8-8-8-8-8-|11--111111111111|x1
A|9---9-9-9-9-9-9-|8---8-8-8-8-8-8-|----------------|----------------|
D|----------------|----------------|----------------|----------------|

Guitar 2 :
e|----------------|----------------|----------------|----------------|
B|----------------|----------------|----------------|----------------|
G|----------------|----------------|----------------|6-6-6-6-6-6-6-6-| 
D|4-4-4-4-4-4-4-4-|3-3-3-3-3-3-3-3-|8-8-8-8-8-8-8-8-|6-6-6-6-6-6-6-6-|x1
A|4-4-4-4-4-4-4-4-|3-3-3-3-3-3-3-3-|8-8-8-8-8-8-8-8-|4-4-4-4-4-4-4-4-|
D|4-4-4-4-4-4-4-4-|3-3-3-3-3-3-3-3-|8-8-8-8-8-8-8-8-|----------------|


Guitar 1 :
e|----------------|----------------|----------------|----------------|
B|----------------|----------------|11--11111111111-|9---9-9-9-9-9-9-|
G|11--111111111111|10--101010101010|x---x-x-x-x-x-x-|x---x-x-x-x-x-x-| 
D|x---x-x-x-x-x-x-|x---x-x-x-x-x-x-|8---8-8-8-8-8-8-|6---6-6-6-6-6-6-|x1
A|9---9-9-9-9-9-9-|8---8-8-8-8-8-8-|----------------|----------------|
D|----------------|----------------|----------------|----------------|

Guitar 2 :
e|----------------|----------------|----------------|----------------|
B|----------------|----------------|----------------|----------------|
G|----------------|----------------|----------------|----------------| 
D|4-4-4-4-4-4-4-4-|3-3-3-3-3-3-3-3-|8-8-8-8-8-8-8-8-|6-6-6-6-6-6-6-6-|x1
A|4-4-4-4-4-4-4-4-|3-3-3-3-3-3-3-3-|8-8-8-8-8-8-8-8-|6-6-6-6-6-6-6-6-|
D|4-4-4-4-4-4-4-4-|3-3-3-3-3-3-3-3-|8-8-8-8-8-8-8-8-|6-6-6-6-6-6-6-6-|

Post-Chorus:

Guitar 1 :
e|----------------|----------------|----------------|----------------|
B|----------------|----------------|----------------|----------------|
G|8---8-8-8-8-8-8-|10--101010101010|11--11111111111-|13--131313131313| 
D|x---x-x-x-x-x-x-|x---x-x-x-x-x-x-|x---x-x-x-x-x-x-|x---x-x-x-x-x-x-|x1
A|6---6-6-6-6-6-6-|8---8-8-8-8-8-8-|9---9-9-9-9-9-9-|11--111111111111|
D|----------------|----------------|----------------|----------------|

Guitar 2 :
e|----------------|----------------|----------------|----------------|
B|----------------|----------------|----------------|----------------|
G|----------------|----------------|----------------|----------------| 
D|1-1-1-1-1-1-1-1-|3-3-3-3-3-3-3-3-|4-4-4-4-4-4-4-4-|6-6-6-6-6-6-6-6-|x1
A|1-1-1-1-1-1-1-1-|3-3-3-3-3-3-3-3-|4-4-4-4-4-4-4-4-|6-6-6-6-6-6-6-6-|
D|1-1-1-1-1-1-1-1-|3-3-3-3-3-3-3-3-|4-4-4-4-4-4-4-4-|6-6-6-6-6-6-6-6-|

Verse :

Guitar 1 :
e|----------------|
B|----------------|
G|----------------| 
D|----------------|x7
A|----------------|
D|4-4-4-4-4-4-4-4-|

Chorus :

Guitar 1 :
e|----------------|----------------|----------------|----------------|
B|----------------|----------------|11--11111111111-|9---9-9-9-9-9-9-|
G|11--111111111111|10--101010101010|x---x-x-x-x-x-x-|x---x-x-x-x-x-x-| 
D|x---x-x-x-x-x-x-|x---x-x-x-x-x-x-|8---8-8-8-8-8-8-|6---6-6-6-6-6-6-|x1
A|9---9-9-9-9-9-9-|8---8-8-8-8-8-8-|----------------|----------------|
D|----------------|----------------|----------------|----------------|

Guitar 2 :
e|----------------|----------------|----------------|----------------|
B|----------------|----------------|----------------|----------------|
G|----------------|----------------|----------------|----------------| 
D|4-4-4-4-4-4-4-4-|3-3-3-3-3-3-3-3-|8-8-8-8-8-8-8-8-|6-6-6-6-6-6-6-6-|x1
A|4-4-4-4-4-4-4-4-|3-3-3-3-3-3-3-3-|8-8-8-8-8-8-8-8-|6-6-6-6-6-6-6-6-|
D|4-4-4-4-4-4-4-4-|3-3-3-3-3-3-3-3-|8-8-8-8-8-8-8-8-|6-6-6-6-6-6-6-6-|

Guitar 1 :
e|----------------|----------------|----------------|----------------|
B|----------------|----------------|11--11111111111-|14--141414141414|
G|11--111111111111|10--101010101010|x---x-x-x-x-x-x-|x---x-x-x-x-x-x-| 
D|x---x-x-x-x-x-x-|x---x-x-x-x-x-x-|8---8-8-8-8-8-8-|11--111111111111|x1
A|9---9-9-9-9-9-9-|8---8-8-8-8-8-8-|----------------|----------------|
D|----------------|----------------|----------------|----------------|

Guitar 2 :
e|----------------|----------------|----------------|----------------|
B|----------------|----------------|----------------|----------------|
G|----------------|----------------|----------------|6-6-6-6-6-6-6-6-| 
D|4-4-4-4-4-4-4-4-|3-3-3-3-3-3-3-3-|8-8-8-8-8-8-8-8-|6-6-6-6-6-6-6-6-|x1
A|4-4-4-4-4-4-4-4-|3-3-3-3-3-3-3-3-|8-8-8-8-8-8-8-8-|4-4-4-4-4-4-4-4-|
D|4-4-4-4-4-4-4-4-|3-3-3-3-3-3-3-3-|8-8-8-8-8-8-8-8-|----------------|


Guitar 1 :
e|----------------|----------------|----------------|----------------|
B|----------------|----------------|11--11111111111-|9---9-9-9-9-9-9-|
G|11--111111111111|10--101010101010|x---x-x-x-x-x-x-|x---x-x-x-x-x-x-| 
D|x---x-x-x-x-x-x-|x---x-x-x-x-x-x-|8---8-8-8-8-8-8-|6---6-6-6-6-6-6-|x1
A|9---9-9-9-9-9-9-|8---8-8-8-8-8-8-|----------------|----------------|
D|----------------|----------------|----------------|----------------|

Guitar 2 :
e|----------------|----------------|----------------|----------------|
B|----------------|----------------|----------------|----------------|
G|----------------|----------------|----------------|----------------| 
D|4-4-4-4-4-4-4-4-|3-3-3-3-3-3-3-3-|8-8-8-8-8-8-8-8-|6-6-6-6-6-6-6-6-|x1
A|4-4-4-4-4-4-4-4-|3-3-3-3-3-3-3-3-|8-8-8-8-8-8-8-8-|6-6-6-6-6-6-6-6-|
D|4-4-4-4-4-4-4-4-|3-3-3-3-3-3-3-3-|8-8-8-8-8-8-8-8-|6-6-6-6-6-6-6-6-|

Post-Chorus:

Guitar 1 :
e|----------------|----------------|----------------|----------------|
B|----------------|----------------|----------------|----------------|
G|8---8-8-8-8-8-8-|10--101010101010|11--11111111111-|13--131313131313| 
D|x---x-x-x-x-x-x-|x---x-x-x-x-x-x-|x---x-x-x-x-x-x-|x---x-x-x-x-x-x-|x1
A|6---6-6-6-6-6-6-|8---8-8-8-8-8-8-|9---9-9-9-9-9-9-|11--111111111111|
D|----------------|----------------|----------------|----------------|

Guitar 2 :
e|----------------|----------------|----------------|----------------|
B|----------------|----------------|----------------|----------------|
G|----------------|----------------|----------------|----------------| 
D|1-1-1-1-1-1-1-1-|3-3-3-3-3-3-3-3-|4-4-4-4-4-4-4-4-|6-6-6-6-6-6-6-6-|x1
A|1-1-1-1-1-1-1-1-|3-3-3-3-3-3-3-3-|4-4-4-4-4-4-4-4-|6-6-6-6-6-6-6-6-|
D|1-1-1-1-1-1-1-1-|3-3-3-3-3-3-3-3-|4-4-4-4-4-4-4-4-|6-6-6-6-6-6-6-6-|

Interlude:

Guitar 1 :
e|----------------|----------------|----------------|----------------|
B|----------------|----------------|----------------|----------------|
G|----------------|----------------|----------------|----------------| 
D|----------------|----------------|----------------|----------------|x1
A|4-------4-------|6-------6-------|----------------|----------------|
D|----------------|----------------|4-------4-------|3-------3-------|

Guitar 2 :
e|2-1-----2-1-----|2-1-----2-1-----|2-1----2-1------|2-1-------------|
B|----2-------2---|----2-------2---|----2------2----|----2-----------|
G|------1-------1-|------1-------1-|------1------1--|------1---------| 
D|----------------|----------------|----------------|----------------|x1
A|----------------|----------------|----------------|----------------|
D|----------------|----------------|----------------|----------------|

Guitar 1 :
e|----------------|----------------|
B|----------------|----------------|
G|----------------|----------------| 
D|----------------|----------------|x1
A|4-------4-------|6-------6-------|
D|----------------|----------------|

Guitar 2 :
e|2-1-----2-1-----|2-1-----2-1-----|
B|----2-------2---|----2-------2---|
G|------1-------1-|------1-------1-| 
D|----------------|----------------|x1
A|----------------|----------------|
D|----------------|----------------|

Guitar 1 (palm mute) :

e|----------------|----------------|----------------|----------------|
B|----------------|----------------|----------------|----------------|
G|----------------|----------------|----------------|----------------| 
D|6-6-6-6-6-6-6-6-|8-8-8-8-8-8-8-8-|----------------|----------------|x1
A|4-4-4-4-4-4-4-4-|6-6-6-6-6-6-6-6-|4-4-4-4-4-4-4-4-|3-3-3-3-3-3-3-3-|
D|----------------|----------------|4-4-4-4-4-4-4-4-|3-3-3-3-3-3-3-3-|

e|----------------|
B|----------------|
G|----------------| 
D|----------------|x2
A|3-3-3-3-3-3-3-3-|
D|3-3-3-3-3-3-3-3-|

Instrumental Part:

Guitar 1 :
e|----------------|----------------|----------------|----------------|
B|----------------|----------------|----------------|----------------|
G|10--108---8-8-6-|13---1313131313-|8---8-6---6-108-|--8-8---108---6-| 
D|----------------|----------------|----------------|----------------|x1
A|8---8-6---6-6-4-|11---1111111111-|6---6-4---4-8-6-|--6-6---8-6---4-|
D|----------------|----------------|----------------|----------------|

Guitar 2 :
e|----------------|----------------|----------------|----------------|
B|----------------|----------------|----------------|----------------|
G|----------------|----------------|----------------|----------------| 
D|4-4-4-4-4-4-4-4-|3-3-3-3-3-3-3-3-|8-8-8-8-8-8-8-8-|6-6-6-6-6-6-6-6-|x1
A|4-4-4-4-4-4-4-4-|3-3-3-3-3-3-3-3-|8-8-8-8-8-8-8-8-|6-6-6-6-6-6-6-6-|
D|4-4-4-4-4-4-4-4-|3-3-3-3-3-3-3-3-|8-8-8-8-8-8-8-8-|6-6-6-6-6-6-6-6-|

Guitar 1 :
e|----------------|----------------|----------------|----------------|
B|----------------|----------------|----------------|----------------|
G|10--108---8-8-6-|13---1313131313-|8---8-6---6-108-|--8-8---108---6-| 
D|----------------|----------------|----------------|----------------|x1
A|8---8-6---6-6-4-|11---1111111111-|6---6-4---4-8-6-|--6-6---8-6---4-|
D|----------------|----------------|----------------|----------------|

Guitar 2 :
e|----------------|----------------|----------------|----------------|
B|----------------|----------------|----------------|----------------|
G|----------------|----------------|----------------|6-6-6-6-6-6-6-6-| 
D|4-4-4-4-4-4-4-4-|3-3-3-3-3-3-3-3-|8-8-8-8-8-8-8-8-|6-6-6-6-6-6-6-6-|x1
A|4-4-4-4-4-4-4-4-|3-3-3-3-3-3-3-3-|8-8-8-8-8-8-8-8-|4-4-4-4-4-4-4-4-|
D|4-4-4-4-4-4-4-4-|3-3-3-3-3-3-3-3-|8-8-8-8-8-8-8-8-|----------------|


Chorus :

Guitar 1 :
e|----------------|----------------|----------------|----------------|
B|----------------|----------------|11--11111111111-|9---9-9-9-9-9-9-|
G|11--111111111111|10--101010101010|x---x-x-x-x-x-x-|x---x-x-x-x-x-x-| 
D|x---x-x-x-x-x-x-|x---x-x-x-x-x-x-|8---8-8-8-8-8-8-|6---6-6-6-6-6-6-|x1
A|9---9-9-9-9-9-9-|8---8-8-8-8-8-8-|----------------|----------------|
D|----------------|----------------|----------------|----------------|

Guitar 2 :
e|----------------|----------------|----------------|----------------|
B|----------------|----------------|----------------|----------------|
G|----------------|----------------|----------------|----------------| 
D|4-4-4-4-4-4-4-4-|3-3-3-3-3-3-3-3-|8-8-8-8-8-8-8-8-|6-6-6-6-6-6-6-6-|x1
A|4-4-4-4-4-4-4-4-|3-3-3-3-3-3-3-3-|8-8-8-8-8-8-8-8-|6-6-6-6-6-6-6-6-|
D|4-4-4-4-4-4-4-4-|3-3-3-3-3-3-3-3-|8-8-8-8-8-8-8-8-|6-6-6-6-6-6-6-6-|

Guitar 1 :
e|----------------|----------------|----------------|----------------|
B|----------------|----------------|11--11111111111-|14--141414141414|
G|11--111111111111|10--101010101010|x---x-x-x-x-x-x-|x---x-x-x-x-x-x-| 
D|x---x-x-x-x-x-x-|x---x-x-x-x-x-x-|8---8-8-8-8-8-8-|11--111111111111|x1
A|9---9-9-9-9-9-9-|8---8-8-8-8-8-8-|----------------|----------------|
D|----------------|----------------|----------------|----------------|

Guitar 2 :
e|----------------|----------------|----------------|----------------|
B|----------------|----------------|----------------|----------------|
G|----------------|----------------|----------------|6-6-6-6-6-6-6-6-| 
D|4-4-4-4-4-4-4-4-|3-3-3-3-3-3-3-3-|8-8-8-8-8-8-8-8-|6-6-6-6-6-6-6-6-|x1
A|4-4-4-4-4-4-4-4-|3-3-3-3-3-3-3-3-|8-8-8-8-8-8-8-8-|4-4-4-4-4-4-4-4-|
D|4-4-4-4-4-4-4-4-|3-3-3-3-3-3-3-3-|8-8-8-8-8-8-8-8-|----------------|


Guitar 1 :
e|----------------|----------------|----------------|----------------|
B|----------------|----------------|11--11111111111-|9---9-9-9-9-9-9-|
G|11--111111111111|10--101010101010|x---x-x-x-x-x-x-|x---x-x-x-x-x-x-| 
D|x---x-x-x-x-x-x-|x---x-x-x-x-x-x-|8---8-8-8-8-8-8-|6---6-6-6-6-6-6-|x1
A|9---9-9-9-9-9-9-|8---8-8-8-8-8-8-|----------------|----------------|
D|----------------|----------------|----------------|----------------|

Guitar 2 :
e|----------------|----------------|----------------|----------------|
B|----------------|----------------|----------------|----------------|
G|----------------|----------------|----------------|----------------| 
D|4-4-4-4-4-4-4-4-|3-3-3-3-3-3-3-3-|8-8-8-8-8-8-8-8-|6-6-6-6-6-6-6-6-|x1
A|4-4-4-4-4-4-4-4-|3-3-3-3-3-3-3-3-|8-8-8-8-8-8-8-8-|6-6-6-6-6-6-6-6-|
D|4-4-4-4-4-4-4-4-|3-3-3-3-3-3-3-3-|8-8-8-8-8-8-8-8-|6-6-6-6-6-6-6-6-|

Post-Chorus:

Guitar 1 :
e|----------------|----------------|----------------|----------------|
B|----------------|----------------|----------------|----------------|
G|8---8-8-8-8-8-8-|10--101010101010|11--11111111111-|13--131313131313| 
D|x---x-x-x-x-x-x-|x---x-x-x-x-x-x-|x---x-x-x-x-x-x-|x---x-x-x-x-x-x-|x1
A|6---6-6-6-6-6-6-|8---8-8-8-8-8-8-|9---9-9-9-9-9-9-|11--111111111111|
D|----------------|----------------|----------------|----------------|

Guitar 2 :
e|----------------|----------------|----------------|----------------|
B|----------------|----------------|----------------|----------------|
G|----------------|----------------|----------------|----------------| 
D|1-1-1-1-1-1-1-1-|3-3-3-3-3-3-3-3-|4-4-4-4-4-4-4-4-|6-6-6-6-6-6-6-6-|x1
A|1-1-1-1-1-1-1-1-|3-3-3-3-3-3-3-3-|4-4-4-4-4-4-4-4-|6-6-6-6-6-6-6-6-|
D|1-1-1-1-1-1-1-1-|3-3-3-3-3-3-3-3-|4-4-4-4-4-4-4-4-|6-6-6-6-6-6-6-6-|
Suggest correction
Give kudos to tab author, rate the tab!
1 2 3 4 5
comments
print report bad tab
1 comment total.
0 reply
Ran Ran Ru 52 Apr 18, 2009 06:09 PM

its good

guest
You may want to rate the tab now too:
select rating
Wanna post a correction for this tab? Suggest correction