Oops, an error
Loading. Please wait.

Come Back Song Tab

version 1
version 1

Whole song

22,633 views 3 this week
1 commentread comment
1 2 3 4 5
x 3
add to favorites
launch autoscroll
font size
0
reset
how to read this tab
guitar tuner
Autoscroll
slow
fast
+/-
esc
set tempo
stop
Help us to improve Ultimate-Guitar.com Take our survey!
×
Author
Difficulty
Capo
intermediate
2nd fret
tabbed by AbeEscalera
Capo on 2nd Fret
Standard tuning

Intro
e------------0--0--3--0--0--0--2--|
b-1/3-3-3\1--1--5--3--3--1--5--2--|
g-2/4-4-4\2--0--0--0--0--0--0--0--|
d-3/5-5-5\3--2--4--0--2--2--4--0--|
a------------3--5--2--2--3--5--2--|
E------------------3--0--------3--|

Part1 "I woke up..
-0--0--3-----------|
-3--5--3-----------|
-0--0--0--(x4)-----|
-2--4--0-----------|
-3--5--2-----------|
-------3-----------|

Part2 "Cause I didnt...
-0--0--3--0--0--0--2----|
-1--5--3--3--1--5--2----|
-0--0--0--0--0--0--0----|
-2--4--0--2--2--4--0----|
-3--5--2--2--3--5--2----|
-------3--0--------3----|

Part3 "And baby I know..
-0--0--3--0--0--0---------------|
-1--5--3--3--1--5--(Back-to-----|
-0--0--0--0--0--0--intro)-------|
-2--4--0--2--2--4---------------|
-3--5--2--2--3--5---------------|
-------3--0---------------------|


Part 1
I woke up again this morning
And wouldn't you know it... pouring rain
I went and burned a pot of coffee
And like that I poured it down the drain

Part2
'Cause I didn't know I needed you so
And letting you go was wrong
Part3
And baby I know you got your radio on
So this is my my bad, come back song

Part1
I know I said I wouldn't miss you
But now I'm saying I'm a fool
You're on the feel good side of leaving
And I'm the backside of a mule
part2
'Cause I didn't know I needed you so
And letting you go was wrong
part3
And baby I know you got your radio on
So this is my so sad come back song

Part1
And now I'm laying down without you
In this king size empty bed
And I wish I had my arms around you
Now I'll just dream of you instead
part2
'Cause I didn't know I needed you so
And letting you go was wrong
part3
And baby I know you got your radio on
So this is my get back, come back

Hey, I didn't know I needed you so
And letting you go and letting you go was wrong
And baby I know you got your radio on
So this is my my bad, come back song

Oh yeah yeah
Part2
I know I said I wouldn't miss you
I said I wouldn't miss you girl, yeah
Suggest correction
Give kudos to tab author, rate the tab!
1 2 3 4 5
comments
print report bad tab
1 comment total.
-1 reply
riley.lee.graha 21 Aug 07, 2014 02:20 PM

didn't like this contribution

guest
You may want to rate the tab now too:
select rating
Wanna post a correction for this tab? Suggest correction