Oops, an error
Loading. Please wait.

If I Told You intro tab

version 1
version 1

Intro

  • Originally played on piano, mostly played during t... Show more

Whole song

  • Tab based on the piano arpeggiation in the background with chords to match.
781 views 15 this week
1 commentread comment
1 2 3 4 5
x 10
add to favorites
×
Save as Personal and add changes to this tab that will be seen only by you. Learn more ›
×
You can save this tab as Personal to edit and correct it or add notes. All changes will be seen only by you. Learn more »
launch autoscroll
font size
0
reset
how to read this tab
guitar tuner
edit
Autoscroll
slow
fast
+/-
esc
set tempo
stop
Author
Difficulty
About this tab version
Originally played on piano, mostly played during the intro, but can be played throughout the song, Link to original song https://www.youtube.com/watch?v=7LBCFyUw8gM. Was this info helpful? Yes No
[Main riff]
e|------------------------|-----------------|-----------------|--------------------|
B|------------5---5---5---|-----5---5---5---|-----5---5---5---|-----5---5----------|
G|----------6---6---6---6-|---6---6---6---6-|---6---6---6---6-|---6---6---6-4-6----|
D|--------7---------------|-6---------------|-4---------------|-0------------------|
A|------------------------|-----------------|-----------------|--------------------|
E|------------------------|-----------------|-----------------|--------------------|

            
            
Suggest correction
Creating personal tab
Creating personal tab
You can edit any tab online and save it as your Personal.

You can edit, replace or remove any tab part or add personal notes – all changes will be seen only by you.

Personal tabs can be accessed anytime from any device, even offline.
Learn more »
comments
print report bad tab
1 comment total.
0 reply
G-unot 112 Feb 08, 2017 02:45 AM, edited at 07:48 am

the last bar should be a C on the 3rd fret instead of the open D note

e|----------------------------|
B|------5----5--------------|
G|---6----6----6--4--6----|
D|----------------------------|
A|-3-------------------------|
E|----------------------------|

guest
You may want to rate the tab now too:
select rating
Wanna post a correction for this tab? Suggest correction