Oops, an error
Loading. Please wait.

The Burning Of Sodom tab

version 1
version 1

Whole song

Interactive

3,477 views 1 this week
no commentswrite comment
1 2 3 4 5
x 3
add to favorites
×
Save as Personal and add changes to this tab that will be seen only by you. Learn more ›
×
You can save this tab as Personal to edit and correct it or add notes. All changes will be seen only by you. Learn more »
launch autoscroll
font size
0
reset
how to read this tab
guitar tuner
edit
Autoscroll
slow
fast
+/-
esc
set tempo
stop
Author
Unregistered
Song: The Burning of Sodom
Artist: Dark Angel
Album: Darkness Descends (1986)

Tuning: Standard

[Riff 1] x4
e|---------------------------------------------|
B|---------------------------------------------|
G|---------------------------------------------|
D|---------------------------------------------|
A|--------5p4-------------------5p4-------2h4--|
E|--2-2-2-----2-2-2-2-2-2-2-2-2-----2-2-2------|

[Riff 2] x4
e|-------------------------------------|---------------------------------------|
B|-------------------------------------|---------------------------------------|
G|-------------------------------------|---------------------------------------|
D|-------------------------------------|---------------------------------------|
A|--------------------------------4-5--|--------------------------------5-4-3--|
E|--0-0-0-0-0-0-2-0-0-0-5-3-0-0-0-2-3--|--0-0-0-0-0-0-2-0-0-0-5-3-1-1-1-3-2-1--|

[Fig. 1] x2
e|-----------------------------------------|-------------------------------------------|
B|-----------------------------------------|-------------------------------------------|
G|-----------------------------------------|-------------------------------------------|
D|-----------------------------------------|-------------------------------------------|
A|------------------------------------5-7--|------------------------------------5-7-8--|
E|--0-0-0-0-0-0-2-0-0-0-0-0-0-0-0-0-0-3-5--|--0-0-0-0-0-0-2-0-0-0-0-0-0-0-0-0-0-3-5-6--|

[Riff 2] x2
e|-------------------------------------|---------------------------------------|
B|-------------------------------------|---------------------------------------|
G|-------------------------------------|---------------------------------------|
D|-------------------------------------|---------------------------------------|
A|--------------------------------4-5--|--------------------------------5-4-3--|
E|--0-0-0-0-0-0-2-0-0-0-5-3-0-0-0-2-3--|--0-0-0-0-0-0-2-0-0-0-5-3-1-1-1-3-2-1--|

[Fig. 1] x2
e|-----------------------------------------|-------------------------------------------|
B|-----------------------------------------|-------------------------------------------|
G|-----------------------------------------|-------------------------------------------|
D|-----------------------------------------|-------------------------------------------|
A|------------------------------------5-7--|------------------------------------5-7-8--|
E|--0-0-0-0-0-0-2-0-0-0-0-0-0-0-0-0-0-3-5--|--0-0-0-0-0-0-2-0-0-0-0-0-0-0-0-0-0-3-5-6--|

[Riff 2] x2
e|-------------------------------------|---------------------------------------|
B|-------------------------------------|---------------------------------------|
G|-------------------------------------|---------------------------------------|
D|-------------------------------------|---------------------------------------|
A|--------------------------------4-5--|--------------------------------5-4-3--|
E|--0-0-0-0-0-0-2-0-0-0-5-3-0-0-0-2-3--|--0-0-0-0-0-0-2-0-0-0-5-3-1-1-1-3-2-1--|

[Riff 1] x4
e|---------------------------------------------|
B|---------------------------------------------|
G|---------------------------------------------|
D|---------------------------------------------|
A|--------5p4-------------------5p4-------2h4--|
E|--2-2-2-----2-2-2-2-2-2-2-2-2-----2-2-2------|

[Riff 2] x2
e|-------------------------------------|---------------------------------------|
B|-------------------------------------|---------------------------------------|
G|-------------------------------------|---------------------------------------|
D|-------------------------------------|---------------------------------------|
A|--------------------------------4-5--|--------------------------------5-4-3--|
E|--0-0-0-0-0-0-2-0-0-0-5-3-0-0-0-2-3--|--0-0-0-0-0-0-2-0-0-0-5-3-1-1-1-3-2-1--|

[Fig. 1] x2
e|-----------------------------------------|-------------------------------------------|
B|-----------------------------------------|-------------------------------------------|
G|-----------------------------------------|-------------------------------------------|
D|-----------------------------------------|-------------------------------------------|
A|------------------------------------5-7--|------------------------------------5-7-8--|
E|--0-0-0-0-0-0-2-0-0-0-0-0-0-0-0-0-0-3-5--|--0-0-0-0-0-0-2-0-0-0-0-0-0-0-0-0-0-3-5-6--|

[Riff 2] x2
e|-------------------------------------|---------------------------------------|
B|-------------------------------------|---------------------------------------|
G|-------------------------------------|---------------------------------------|
D|-------------------------------------|---------------------------------------|
A|--------------------------------4-5--|--------------------------------5-4-3--|
E|--0-0-0-0-0-0-2-0-0-0-5-3-0-0-0-2-3--|--0-0-0-0-0-0-2-0-0-0-5-3-1-1-1-3-2-1--|

[Riff 1] x4
e|---------------------------------------------|
B|---------------------------------------------|
G|---------------------------------------------|
D|---------------------------------------------|
A|--------5p4-------------------5p4-------2h4--|
E|--2-2-2-----2-2-2-2-2-2-2-2-2-----2-2-2------|

[Fig. 2] x4
e|-----------------------------------|
B|-----------------------------------|
G|--------------------------------8--|
D|--------3-------5-------7-------8--|
A|--------3-------5-------7-------6--|
E|--0-0-0-1-0-0-0-3-0-0-0-5-0-0-0----|

[Riff 1] x4
e|---------------------------------------------|
B|---------------------------------------------|
G|---------------------------------------------|
D|---------------------------------------------|
A|--------5p4-------------------5p4-------2h4--|
E|--2-2-2-----2-2-2-2-2-2-2-2-2-----2-2-2------|

[Fig. 2] x4
e|-----------------------------------|
B|-----------------------------------|
G|--------------------------------8--|
D|--------3-------5-------7-------8--|
A|--------3-------5-------7-------6--|
E|--0-0-0-1-0-0-0-3-0-0-0-5-0-0-0----|

[Riff 1] x4
e|---------------------------------------------|
B|---------------------------------------------|
G|---------------------------------------------|
D|---------------------------------------------|
A|--------5p4-------------------5p4-------2h4--|
E|--2-2-2-----2-2-2-2-2-2-2-2-2-----2-2-2------|

[Fig. 2] x4
e|-----------------------------------|
B|-----------------------------------|
G|--------------------------------8--|
D|--------3-------5-------7-------8--|
A|--------3-------5-------7-------6--|
E|--0-0-0-1-0-0-0-3-0-0-0-5-0-0-0----|

[Fig. 3] x4
e|---------------------------------------------------------------------|
B|---------------------------------------------------------------------|
G|---------------------------------------------------------------------|
D|--------------4-------------------------------------------------5-4--|
A|--------------4-------------------------------------------------5-4--|
E|--0-0-0-0-0-0-2-0-0-0-0-0-0-0-0-0-0-0-0-0-0-0-0-0-0-0-0-0-0-0-0-3-2--|

e|------------------------------------------------------------------------|
B|------------------------------------------------------------------------|
G|------------------------------------------------------------------------|
D|--------------4--------------------------------------------------5-4-3--|
A|--------------4--------------------------------------------------5-4-3--|
E|--0-0-0-0-0-0-2-0-0-0-0-0-0-0-0-0-0-0-0-0-0-0-0-0-0-0-0-0-0-0-0--3-2-1--|

[Riff 2] x2
e|-------------------------------------|---------------------------------------|
B|-------------------------------------|---------------------------------------|
G|-------------------------------------|---------------------------------------|
D|-------------------------------------|---------------------------------------|
A|--------------------------------4-5--|--------------------------------5-4-3--|
E|--0-0-0-0-0-0-2-0-0-0-5-3-0-0-0-2-3--|--0-0-0-0-0-0-2-0-0-0-5-3-1-1-1-3-2-1--|

[Fig. 1] x2
e|-----------------------------------------|-------------------------------------------|
B|-----------------------------------------|-------------------------------------------|
G|-----------------------------------------|-------------------------------------------|
D|-----------------------------------------|-------------------------------------------|
A|------------------------------------5-7--|------------------------------------5-7-8--|
E|--0-0-0-0-0-0-2-0-0-0-0-0-0-0-0-0-0-3-5--|--0-0-0-0-0-0-2-0-0-0-0-0-0-0-0-0-0-3-5-6--|

[Riff 2] x2
e|-------------------------------------|---------------------------------------|
B|-------------------------------------|---------------------------------------|
G|-------------------------------------|---------------------------------------|
D|-------------------------------------|---------------------------------------|
A|--------------------------------4-5--|--------------------------------5-4-3--|
E|--0-0-0-0-0-0-2-0-0-0-5-3-0-0-0-2-3--|--0-0-0-0-0-0-2-0-0-0-5-3-1-1-1-3-2-1--|

[Riff 1] x8
e|---------------------------------------------|
B|---------------------------------------------|
G|---------------------------------------------|
D|---------------------------------------------|
A|--------5p4-------------------5p4-------2h4--|
E|--2-2-2-----2-2-2-2-2-2-2-2-2-----2-2-2------|

[End]
e|-----|
B|-----|
G|-----|
D|--3--|
A|--3--|
E|--1--|

************************************

| h  Hammer-on
| p  Pull-off

************************************

            
            
Suggest correction
Creating personal tab
Creating personal tab
You can edit any tab online and save it as your Personal.

You can edit, replace or remove any tab part or add personal notes – all changes will be seen only by you.

Personal tabs can be accessed anytime from any device, even offline.
Learn more »
Give kudos to tab author, rate the tab!
1 2 3 4 5
comments
print report bad tab
guest
Wanna post a correction for this tab? Suggest correction