Oops, an error
Loading. Please wait.

Arrival Of Satans Empire Tab

version 2
version 2

Whole song

34 views 1 this week
no commentswrite comment
1 2 3 4 5
3 more votes to show rating
add to favorites
launch autoscroll
font size
0
reset
how to read this tab
guitar tuner
Autoscroll
slow
fast
+/-
esc
set tempo
stop
Help us to improve Ultimate-Guitar.com Take our survey!
×
Author
Difficulty
Tuning
intermediate
D# G# C# F# A# D#
Artist: Dark Funeral
Title: Arrival Of Satan's Empire
Album: Diabolis Interium
Transcribed by: Urano
Ver. 3.00 (27/08/2016)
E-mail: cerebrenitza@hotmail.com

Tuning: Half Down


  Part_A [266 bpm]
D#|-----------0---#-----|------0---#---1-----|--#-------0---#-----|------3---3---4------||#
A#|-----------0---#-----|------0---#---1-----|--#-------0---#-----|------3---3---4------||#
F#|o----------0---#-----|------0---#---1-----|--#-------0---#-----|------3---3---4-----o||#
C#|o----------2---#-----|------2---#---3-----|--#-------2---#-----|------5---5---6-----o||#
G#|-----------2---#-----|------2---#---3-----|--#-------2---#-----|------5---5---6------||#
D#|-----------0---#-----|------0---#---1-----|--#-------0---#-----|------3---3---4------||#
  |   1   2   3   4        1   2   3   4        1   2   3   4        1   2   3   4      |  
  |                                                                                     |  
D#|---------------------|--------------------|--------------------|---------------------||#
A#|---------------------|--------------------|--------------------|---------------------||#
F#|o----------4---------|------4-------5-----|----------4---------|------7---7---8-----o||#
C#|o----------5---------|------5-------6-----|----------5---------|------8---8---9-----o||#
G#|-----------7---------|------7-------8-----|----------7---------|-----10--10--11------||#
D#|---0~----------0~----|--0~------0~--------|--0~----------0~----|--0~-----------------||#
      1   2   3   4        1   2   3   4        1   2   3   4        1   2   3   4         


  Part_B [266 bpm]
D#|---------------------|--------------------|--------------------|------3~------4~----|
A#|---------------------|--------------------|--------------------|------3~------4~----|
F#|o--0~----------------|--0~----------1~----|--0~----------------|--0~--3~------4~----|
C#|o--2~----------------|--2~----------3~----|--2~----------------|--2~--5~------6~----|
G#|---2~----------------|--2~----------3~----|--2~----------------|--2~--5~------6~----|
D#|---0~----------------|--0~----------1~----|--0~----------------|--0~--3~------4~----|
  |   1   2   3   4        1   2   3   4        1   2   3   4        1   2   3   4     |
  |                                                                                    |
D#|-----------0---------|-(0)----------------|----------0---------|-(0)----------------|
A#|-----------0---------|-(0)----------------|----------0---------|-(0)----------------|
F#|o----------4---------|-(4)----------5-----|----------4---------|-(4)--7---7---8-----|
C#|o----------5---------|-(5)----------6-----|----------5---------|-(5)--8---8---9-----|
G#|-----------7---------|-(7)----------8-----|----------7---------|-(7)-10--10--11-----|
D#|---0-------^---------|------0-------------|--0-------^---------|--------------------|
      1   2   3   4        1   2   3   4        1   2   3   4        1   2   3   4      


D#|--------------------|--------------------|--------------------|------3~------4~----|
A#|--------------------|--------------------|--------------------|------3~------4~----|
F#|--0~----------------|--0~----------1~----|--0~----------------|--0~--3~------4~----|
C#|--2~----------------|--2~----------3~----|--2~----------------|--2~--5~------6~----|
G#|--2~----------------|--2~----------3~----|--2~----------------|--2~--5~------6~----|
D#|--0~----------------|--0~----------1~----|--0~----------------|--0~--3~------4~----|
  |  1   2   3   4        1   2   3   4        1   2   3   4        1   2   3   4     |
  |                                                                                   |
D#|----------0---------|-(0)----------------|----------0---------|-(0)----------------|
A#|----------0---------|-(0)----------------|----------0---------|-(0)----------------|
F#|----------4---------|-(4)----------5-----|----------4---------|-(4)--7---7---8-----|
C#|----------5---------|-(5)----------6-----|----------5---------|-(5)--8---8---9-----|
G#|----------7---------|-(7)----------8-----|----------7---------|-(7)-10--10--11-----|
D#|--0-------^---------|------0-------------|--0-------^---------|--------------------|
   1   2   3   4        1   2   3   4        1   2   3   4        1   2   3   4      


D#|--------------------|--------------------|--------------------|------3~------4~----|
A#|--------------------|--------------------|--------------------|------3~------4~----|
F#|--0~----------------|--0~----------1~----|--0~----------------|--0~--3~------4~----|
C#|--2~----------------|--2~----------3~----|--2~----------------|--2~--5~------6~----|
G#|--2~----------------|--2~----------3~----|--2~----------------|--2~--5~------6~----|
D#|--0~----------------|--0~----------1~----|--0~----------------|--0~--3~------4~----|
  |  1   2   3   4        1   2   3   4        1   2   3   4        1   2   3   4     |
  |                                                                                   |
D#|----------0---------|-(0)----------------|----------0---------|-(0)----------------|
A#|----------0---------|-(0)----------------|----------0---------|-(0)----------------|
F#|----------4---------|-(4)----------5-----|----------4---------|-(4)--7---7---8-----|
C#|----------5---------|-(5)----------6-----|----------5---------|-(5)--8---8---9-----|
G#|----------7---------|-(7)----------8-----|----------7---------|-(7)-10--10--11-----|
D#|--0-------^---------|------0-------------|--0-------^---------|--------------------|
   1   2   3   4        1   2   3   4        1   2   3   4        1   2   3   4      


D#|--------------------|--------------------|--------------------|---------------------||#
A#|--------------------|--------------------|--------------------|---------------------||#
F#|--0~----------------|--0~----------1~----|--0~----------------|--0~--7~------8~----o||#
C#|--2~----------------|--2~----------3~----|--2~----------------|--2~--9~-----10~----o||#
G#|--2~----------------|--2~----------3~----|--2~----------------|--2~--9~-----10~-----||#
D#|--0~----------------|--0~----------1~----|--0~----------------|--0~--7~------8~-----||#
  |  1   2   3   4        1   2   3   4        1   2   3   4        1   2   3   4      |  
  |                                                                                    |  
D#|----------0---------|-(0)----------------|----------0---------|-(0)-----------------||#
A#|----------0---------|-(0)----------------|----------0---------|-(0)-----------------||#
F#|----------4---------|-(4)----------5-----|----------4---------|-(4)----------------o||#
C#|----------5---------|-(5)----------6-----|----------5---------|-(5)--4---4---5-----o||#
G#|----------7---------|-(7)----------8-----|----------7---------|-(7)--5---5---6------||#
D#|--0-------^---------|------0-------------|--0-------^---------|------7---7---8------||#
   1   2   3   4        1   2   3   4        1   2   3   4        1   2   3   4         

  Part_C [266 bpm]
D#|---------------------|--------------------|--------------------|--------------------|
A#|---------------------|--------------------|--------------------|--------------------|
F#|o--0~----------------|------o--/----------|--3~----------------|--1~----------------|
C#|o--2~----------------|-------/--o---------|--5~----------------|--3~----------------|
G#|---2~----------------|--------------------|--5~----------------|--3~----------------|
D#|---0~----------------|--------------------|--3~----------------|--1~----------------|
  |   1   2   3   4        1   2   3   4        1   2   3   4        1   2   3   4     |
  |                                                                                    |
D#|---------------------|--------------------|--------------------|--------------------|
A#|---------------------|--------------------|--------------------|--------------------|
F#|o--------------------|--9~----------------|--------------------|--------------------|
C#|o----------9~--------|----------9~--------|----------9~--------|---------10~--------|
G#|---7~----------------|--------------------|-10~----------------|--8~----------------|
D#|---------------------|--------------------|--------------------|--------------------|
      1   2   3   4        1   2   3   4        1   2   3   4        1   2   3   4      


D#|--------------------|--------------------|--------------------|--------------------|
A#|--------------------|--------------------|--------------------|--------------------|
F#|--0~----------------|------o--/----------|--8~----------------|--7~----------------|
C#|--2~----------------|-------/--o---------|-10~----------------|--9~----------------|
G#|--2~----------------|--------------------|-10~----------------|--9~----------------|
D#|--0~----------------|--------------------|--8~----------------|--7~----------------|
  |  1   2   3   4        1   2   3   4        1   2   3   4        1   2   3   4     |
  |                                                                                   |
D#|--------------------|--------------------|--------------------|--------------------|
A#|--------------------|--------------------|--------------------|--------------------|
F#|--------------------|--------------------|--------------------|--------------------|
C#|----------8~--------|--9~----------------|--------------------|--------------------|
G#|--7~----------------|---------10~--------|---------10~--------|--9~------6~--------|
D#|--------------------|--------------------|--8~----------------|--------------------|
   1   2   3   4        1   2   3   4        1   2   3   4        1   2   3   4      


D#|--------------------|--------------------|--------------------|--------------------|
A#|--------------------|--------------------|--------------------|--------------------|
F#|--0~----------------|------o--/----------|--3~----------------|--1~----------------|
C#|--2~----------------|-------/--o---------|--5~----------------|--3~----------------|
G#|--2~----------------|--------------------|--5~----------------|--3~----------------|
D#|--0~----------------|--------------------|--3~----------------|--1~----------------|
  |  1   2   3   4        1   2   3   4        1   2   3   4        1   2   3   4     |
  |                                                                                   |
D#|--------------------|--------------------|--------------------|--------------------|
A#|--------------------|--------------------|--------------------|--------------------|
F#|--------------------|--9~----------------|--------------------|--------------------|
C#|----------9~--------|----------9~--------|----------9~--------|---------10~--------|
G#|--7~----------------|--------------------|-10~----------------|--8~----------------|
D#|--------------------|--------------------|--------------------|--------------------|
   1   2   3   4        1   2   3   4        1   2   3   4        1   2   3   4      


D#|--------------------|--------------------|--------------------|---------------------||#
A#|--------------------|--------------------|--------------------|---------------------||#
F#|--0~----------------|------o--/----------|--8~----------------|--7~----------------o||#
C#|--2~----------------|-------/--o---------|-10~----------------|--9~----------------o||#
G#|--2~----------------|--------------------|-10~----------------|--9~-----------------||#
D#|--0~----------------|--------------------|--8~----------------|--7~-----------------||#
  |  1   2   3   4        1   2   3   4        1   2   3   4        1   2   3   4      |  
  |                                                                                    |  
D#|--------------------|--------------------|--------------------|---------------------||#
A#|--------------------|--------------------|--------------------|---------------------||#
F#|--------------------|--------------------|--------------------|--------------------o||#
C#|----------8~--------|--9~------8~--------|-10~------9~--------|--------------------o||#
G#|--7~----------------|--------------------|--------------------|--9~-----------------||#
D#|--------------------|--------------------|--------------------|----------7~---------||#
   1   2   3   4        1   2   3   4        1   2   3   4        1   2   3   4         


Part_B [266 bpm]


Part_C [266 bpm] Repeat it 2 times.


Part_D [133 bpm]

D#|---------------------|--------------------|--------------------|--------------------|
A#|---------------------|--------------------|--------------------|--------------------|
F#|o--------------------|--------------------|--------------------|--------------------|
C#|o--5~----------4~----|--5~--7~--5~--7~----|--8~----------7~----|--8~-10~--8~--4~----|
G#|---7~----------7~----|--7~--7~--7~--7~----|-10~---------10~----|-10~-10~-10~--6~----|
D#|---------------------|--------------------|--------------------|--------------------|
  |   1   2   3   4        1   2   3   4        1   2   3   4        1   2   3   4     |
  |                                                                                    |
D#|---0-----------------|-(0)----------------|--3-----------------|-(3)----------------|
A#|---0-----------------|-(0)----------------|--3-----------------|-(3)----------------|
F#|o--0-----------------|-(0)----------------|--3-----------------|-(3)----------------|
C#|o--2-----------------|-(2)----------------|--5-----------------|-(5)----------4-----|
G#|---2-----------------|-(2)----------------|--5-----------------|-(5)----------6-----|
D#|---0-----------------|-(0)----------------|--3-----------------|-(3)----------6-----|
      1   2   3   4        1   2   3   4        1   2   3   4        1   2   3   4      

D#|--------------------|--------------------|--------------------|---------------------||#
A#|--------------------|--------------------|--------------------|---------------------||#
F#|--------------------|--------------------|--------------------|--------------------o||#
C#|--5~----------4~----|--5~--4~--4~--0~----|--1~----------------|--0~----------------o||#
G#|--7~----------7~----|--7~--7~--5~--2~----|--3~----------------|--2~-----------------||#
D#|--------------------|--------------------|--------------------|---------------------||#
  |  1   2   3   4        1   2   3   4        1   2   3   4        1   2   3   4      |  
  |                                                                                    |  
D#|--------------------|--------------------|--------------------|---------------------||#
A#|--------------------|--------------------|--------------------|---------------------||#
F#|--------------------|--------------------|--------------------|--------------------o||#
C#|--5-----------------|-(5)----------4-----|--5~----------------|--4~----------------o||#
G#|--7-----------------|-(7)----------5-----|--6~----------------|--5~-----------------||#
D#|--7-----------------|-(7)----------7-----|--8~----------------|--7~-----------------||#
   1   2   3   4        1   2   3   4        1   2   3   4        1   2   3   4         

  Part_E [133 bpm] Repeat it 2 times.
D#|---------------------|--------------------|--------------------|--------------------|
A#|---------------------|--------------------|--------------------|--------------------|
F#|o--------------------|--------------------|--------------------|--------------------|
C#|o--5~----------4~----|--5~--7~--5~--7~----|--8~----------7~----|--8~-10~--8~--4~----|
G#|---7~----------7~----|--7~--7~--7~--7~----|-10~---------10~----|-10~-10~-10~--6~----|
D#|---------------------|--------------------|--------------------|--------------------|
  |   1   2   3   4        1   2   3   4        1   2   3   4        1   2   3   4     |
  |                                                                                    |
D#|---------------------|--------------------|--------------------|--------------------|
A#|---------------------|--------------------|--------------------|--------------------|
F#|o--------------------|--------------------|--------------------|--------------------|
C#|o--5~----------4~----|--5~--7~--5~--7~----|--8~----------7~----|--8~-10~--8~--4~----|
G#|---7~----------7~----|--7~--7~--7~--7~----|-10~---------10~----|-10~-10~-10~--6~----|
D#|---------------------|--------------------|--------------------|--------------------|
      1   2   3   4        1   2   3   4        1   2   3   4        1   2   3   4      

D#|--------------------|--------------------|--------------------|---------------------||#
A#|--------------------|--------------------|--------------------|---------------------||#
F#|--------------------|--------------------|--------------------|--------------------o||#
C#|--5~----------4~----|--5~--4~--4~--0~----|--1~----------------|--0~----------------o||#
G#|--7~----------7~----|--7~--7~--5~--2~----|--3~----------------|--2~-----------------||#
D#|--------------------|--------------------|--------------------|---------------------||#
  |  1   2   3   4        1   2   3   4        1   2   3   4        1   2   3   4      |  
  |                                                                                    |  
D#|--------------------|--------------------|--------------------|---------------------||#
A#|--------------------|--------------------|--------------------|---------------------||#
F#|--------------------|--------------------|--------------------|--------------------o||#
C#|--5~----------4~----|--5~--4~--4~--------|--5~----------------|--4~----------------o||#
G#|--7~----------7~----|--7~--7~--5~--5~----|--6~----------------|--5~-----------------||#
D#|--------------------|--------------7~----|--8~----------------|--7~-----------------||#
   1   2   3   4        1   2   3   4        1   2   3   4        1   2   3   4         


  Part_F [133 bpm]
D#|---0~----------1~0~--|--1~------4~--3~4~--|--0~----------1~0~--|--1~------4~--------|
A#|---0~----------1~0~--|--1~------4~--3~4~--|--0~----------1~0~--|--1~------4~--------|
F#|o--0~----------1~0~--|--1~------4~--3~4~--|--0~----------1~0~--|--1~------4~--------|
C#|o--2~----------3~2~--|--3~------6~--5~6~--|--2~----------3~2~--|--3~------6~--------|
G#|---2~----------3~2~--|--3~------6~--5~6~--|--2~----------3~2~--|--3~------6~--------|
D#|---0~----------1~0~--|--1~------4~--3~4~--|--0~----------1~0~--|--1~------4~--------|
  |   1   2   3   4        1   2   3   4        1   2   3   4        1   2   3   4     |
  |                                                                                    |
D#|---------------------|--------------------|--------------------|--------------------|
A#|---------------------|--------------------|--------------------|--------------------|
F#|o--4~----------5~4~--|--5~------8~--7~8~--|--4~----------5~4~--|--5~------8~--------|
C#|o--5~----------6~5~--|--6~------9~--8~9~--|--5~----------6~5~--|--6~------9~--------|
G#|---7~----------8~7~--|--8~-----11~-1011~--|--7~----------8~7~--|--8~-----11~--------|
D#|---------------------|--------------------|--------------------|--------------------|
      1   2   3   4        1   2   3   4        1   2   3   4        1   2   3   4      

D#|--0~----------1~0~--|--1~------4~--3~4~--|--0~----------1~0~--|--1~-----------------||#
A#|--0~----------1~0~--|--1~------4~--3~4~--|--0~----------1~0~--|--1~-----------------||#
F#|--0~----------1~0~--|--1~------4~--3~4~--|--0~----------1~0~--|--1~------8~--------o||#
C#|--2~----------3~2~--|--3~------6~--5~6~--|--2~----------3~2~--|--3~-----10~--------o||#
G#|--2~----------3~2~--|--3~------6~--5~6~--|--2~----------3~2~--|--3~-----10~---------||#
D#|--0~----------1~0~--|--1~------4~--3~4~--|--0~----------1~0~--|--1~------8~---------||#
  |  1   2   3   4        1   2   3   4        1   2   3   4        1   2   3   4      |  
  |                                                                                    |  
D#|--------------------|--------------------|--------------------|---------------------||#
A#|--------------------|--------------------|--------------------|---------------------||#
F#|--4~----------5~4~--|--5~------8~--7~8~--|--4~----------5~4~--|--5~----------------o||#
C#|--5~----------6~5~--|--6~------9~--8~9~--|--5~----------6~5~--|--6~------5~--------o||#
G#|--7~----------8~7~--|--8~-----11~-1011~--|--7~----------8~7~--|--8~------6~---------||#
D#|--------------------|--------------------|--------------------|----------8~---------||#
   1   2   3   4        1   2   3   4        1   2   3   4        1   2   3   4         


Part_C [266 bpm] Repeat it 2 times.

Part_F [133 bpm]

Part_E [133 bpm] Repeat it 3 times.


  Part_G [266 bpm]
D#|---------------------|--------------------|--------------------|------3~------4~----|
A#|---------------------|--------------------|--------------------|------3~------4~----|
F#|o--0~----------------|--0~----------1~----|--0~----------------|--0~--3~------4~----|
C#|o--2~----------------|--2~----------3~----|--2~----------------|--2~--5~------6~----|
G#|---2~----------------|--2~----------3~----|--2~----------------|--2~--5~------6~----|
D#|---0~----------------|--0~----------1~----|--0~----------------|--0~--3~------4~----|
  |   1   2   3   4        1   2   3   4        1   2   3   4        1   2   3   4     |
  |                                                                                    |
D#|-----------0---------|-(0)----------------|----------0---------|-(0)----------------|
A#|-----------0---------|-(0)----------------|----------0---------|-(0)----------------|
F#|o----------4---------|-(4)----------5-----|----------4---------|-(4)--7---7---8-----|
C#|o----------5---------|-(5)----------6-----|----------5---------|-(5)--8---8---9-----|
G#|-----------7---------|-(7)----------8-----|----------7---------|-(7)-10--10--11-----|
D#|---0-------^---------|------0-------------|--0-------^---------|--------------------|
      1   2   3   4        1   2   3   4        1   2   3   4        1   2   3   4      


D#|--------------------|--------------------|--------------------|------3~------4~----|
A#|--------------------|--------------------|--------------------|------3~------4~----|
F#|--0~----------------|--0~----------1~----|--0~----------------|--0~--3~------4~----|
C#|--2~----------------|--2~----------3~----|--2~----------------|--2~--5~------6~----|
G#|--2~----------------|--2~----------3~----|--2~----------------|--2~--5~------6~----|
D#|--0~----------------|--0~----------1~----|--0~----------------|--0~--3~------4~----|
  |  1   2   3   4        1   2   3   4        1   2   3   4        1   2   3   4     |
  |                                                                                   |
D#|----------0---------|-(0)----------------|----------0---------|-(0)----------------|
A#|----------0---------|-(0)----------------|----------0---------|-(0)----------------|
F#|----------4---------|-(4)----------5-----|----------4---------|-(4)--7---7---8-----|
C#|----------5---------|-(5)----------6-----|----------5---------|-(5)--8---8---9-----|
G#|----------7---------|-(7)----------8-----|----------7---------|-(7)-10--10--11-----|
D#|--0-------^---------|------0-------------|--0-------^---------|--------------------|
   1   2   3   4        1   2   3   4        1   2   3   4        1   2   3   4      


D#|--------------------|--------------------|--------------------|------3~------4~----|
A#|--------------------|--------------------|--------------------|------3~------4~----|
F#|--0~----------------|--0~----------1~----|--0~----------------|--0~--3~------4~----|
C#|--2~----------------|--2~----------3~----|--2~----------------|--2~--5~------6~----|
G#|--2~----------------|--2~----------3~----|--2~----------------|--2~--5~------6~----|
D#|--0~----------------|--0~----------1~----|--0~----------------|--0~--3~------4~----|
  |  1   2   3   4        1   2   3   4        1   2   3   4        1   2   3   4     |
  |                                                                                   |
D#|----------0---------|-(0)----------------|----------0---------|-(0)----------------|
A#|----------0---------|-(0)----------------|----------0---------|-(0)----------------|
F#|----------4---------|-(4)----------5-----|----------4---------|-(4)--7---7---8-----|
C#|----------5---------|-(5)----------6-----|----------5---------|-(5)--8---8---9-----|
G#|----------7---------|-(7)----------8-----|----------7---------|-(7)-10--10--11-----|
D#|--0-------^---------|------0-------------|--0-------^---------|--------------------|
   1   2   3   4        1   2   3   4        1   2   3   4        1   2   3   4      


D#|--------------------|--------------------|--------------------|---------------------||#
A#|--------------------|--------------------|--------------------|---------------------||#
F#|--0~----------------|--0~----------1~----|--------------------|--------------------o||#
C#|--2~----------------|--2~----------3~----|--9~-----10~--9~----|--5~------4~--5~----o||#
G#|--2~----------------|--2~----------3~----|--9~-----10~--9~----|--5~------4~--5~-----||#
D#|--0~----------------|--0~----------1~----|--7~------8~--7~----|--3~------2~--3~-----||#
  |  1   2   3   4        1   2   3   4        1   2   3   4        1   2   3   4      |  
  |                                                                                    |  
D#|----------0---------|-(0)----------------|--------------------|---------------------||#
A#|----------0---------|-(0)----------------|--------------------|---------------------||#
F#|----------4---------|-(4)----------5-----|--------------------|--------------------o||#
C#|----------5---------|-(5)----------6-----|--9~-----10~--9~----|--5~------4~--5~----o||#
G#|----------7---------|-(7)----------8-----|--9~-----10~--9~----|--5~------4~--5~-----||#
D#|--0-------^---------|------0-------------|--7~------8~--7~----|--3~------2~--3~-----||#
   1   2   3   4        1   2   3   4        1   2   3   4        1   2   3   4         


  Part_H [266 bpm]
D#|------------------||#
A#|------------------||#
F#|o----------------o||#
C#|o--2--#----------o||#
G#|---2--#-----------||#
D#|---0--#-----------||#
  |   1     2        |  
  |                  |  
D#|------------------||#
A#|------------------||#
F#|o----------------o||#
C#|o--2--#----------o||#
G#|---2--#-----------||#
D#|---0--#-----------||#
      1     2           


************************************

|  ~   Tremolo Picking
| (n)  Susteined Note
|  #   Mute String With Pick Hand
|  ^   Quick Arpegio Down Stroke

************************************
Suggest correction
Give kudos to tab author, rate the tab!
1 2 3 4 5
comments
print report bad tab
guest
You may want to rate the tab now too:
select rating
Wanna post a correction for this tab? Suggest correction