Oops, an error
Loading. Please wait.

Pagan Fears Tab

4 views 3 this week
no commentswrite comment
1 2 3 4 5
3 more votes to show rating
add to favorites
launch autoscroll
font size
0
reset
how to read this tab
guitar tuner
Autoscroll
slow
fast
+/-
esc
set tempo
stop
Help us to improve Ultimate-Guitar.com Take our survey!
×
Author
Difficulty
Tuning
intermediate
D# G# C# F# A# D#
Artist: Dark Funeral
Title: Pagan Fears [Mayhem Cover]
Album: Teach Children To Worship Satan/Originators Of Northern Darkness: A Tribute To Mayhem
Transcribed by: Urano
Ver. 3.00 (28/08/2016)
E-mail: cerebrenitza@hotmail.com

Tuning: Half Down


 ~ : Tremolo Picking
(n): Susteined Note
 # : Mute String With Pick Hand






Part_A [324 bpm] Repeat it 4 times.
#||--------------------------------|-------------------------------|
#||--------------------------------|-------------------------------|
#||o-------------------------------|-------------------------------|
#||o-----2----------(2)----3-------|----(3)----2-----3-----2-------|
#||------2----------(2)----2-------|----(2)----2-----2-----2-------|
#||------0--------0--0-------------|-------------------------------|
  |      1     2     3     4             1     2     3     4       |
  |                                                                |
#||--------------------------------|-------------------------------|
#||--------------------------------|-------------------------------|
#||o-------------------------------|-------------------------------|
#||o-----2----------(2)----3-------|----(3)----2-----3-----2-------|
#||------2----------(2)----2-------|----(2)----2-----2-----2-------|
#||------0--------0--0-------------|-------------------------------|
         1     2     3     4             1     2     3     4        


|-------------------------------|-------------------------------|
|-------------------------------|-------------------------------|
|-------------------------------|-------------------------------|
|-----2----------(2)----3-------|----(3)----2-----3-----2-------|
|-----2----------(2)----2-------|----(2)----2-----2-----2-------|
|-----0--------0--0-------------|-------------------------------|
|     1     2     3     4             1     2     3     4       |
|                                                               |
|-------------------------------|-------------------------------|
|-------------------------------|-------------------------------|
|-------------------------------|-------------------------------|
|-----2----------(2)----3-------|----(3)----2-----3-----2-------|
|-----2----------(2)----2-------|----(2)----2-----2-----2-------|
|-----0--------0--0-------------|-------------------------------|
      1     2     3     4             1     2     3     4        


|-------------------------------|-------------------------------|
|-------------------------------|-------------------------------|
|-------------------------------|-------------------------------|
|-----2----------(2)----3-------|----(3)----2-----3-----2-------|
|-----2----------(2)----2-------|----(2)----2-----2-----2-------|
|-----0--------0--0-------------|-------------------------------|
|     1     2     3     4             1     2     3     4       |
|                                                               |
|-------------------------------|-------------------------------|
|-------------------------------|-------------------------------|
|-------------------------------|-------------------------------|
|-----2----------(2)----3-------|----(3)----2-----3-----2-------|
|-----2----------(2)----2-------|----(2)----2-----2-----2-------|
|-----0--------0--0-------------|-------------------------------|
      1     2     3     4             1     2     3     4        


|-------------------------------|--------------------------------||#
|-------------------------------|--------------------------------||#
|-------------------------------|-------------------------------o||#
|-----3----------(3)----4-------|----(4)----3-----4-----3-------o||#
|-----3----------(3)----4-------|----(4)----3-----4-----3--------||#
|-----1--------1--1-----2-------|----(2)----1-----2-----1--------||#
|     1     2     3     4             1     2     3     4        |  
|                                                                |  
|-------------------------------|--------------------------------||#
|-------------------------------|--------------------------------||#
|-------------------------------|-------------------------------o||#
|-----3----------(3)----4-------|----(4)----3-----4-----3-------o||#
|-----3----------(3)----4-------|----(4)----3-----4-----3--------||#
|-----1--------1--1-----2-------|----(2)----1-----2-----1--------||#
      1     2     3     4             1     2     3     4           






Part_B [162 bpm] [Guitar I let the notes ring]
#||--------------------------------|-------------------------------|
#||--------------------------------|-------------------------------|
#||o-------------------------------|-------------------------------|
#||o--------2-----------2----------|--------------2-----------2----|
#||------------2-----2--------4----|--------3--------2-----2-------|
#||------0--------0--------2-------|-----1-----0--------0----------|
  |      1     2     3     4             1     2     3     4       |
  |                                                                |
#||--------------------------------|-------------------------------|
#||--------------------------------|-------------------------------|
#||o-------------------------------|-------------------------------|
#||o-----2-----------------4-------|-----3-----2-------------------|
#||------2-----------------4-------|-----3-----2-------------------|
#||------0-----------------2-------|-----1-----0-------------------|
         1     2     3     4             1     2     3     4        


|-------------------------------|-------------------------------|
|-------------------------------|-------------------------------|
|-------------------------------|-------------------------------|
|-----------4--------3-----2----|--------------2----------------|
|--------4--------3-------------|-----2-----2--------4-----3----|
|-----2--------1--------0-------|--------0--------2-----1-------|
|     1     2     3     4             1     2     3     4       |
|                                                               |
|-------------------------------|-------------------------------|
|-------------------------------|-------------------------------|
|-------------------------------|-------------------------------|
|-----4--------3--------2-------|----(2)----------4-----3-------|
|-----4--------3--------2-------|----(2)----------4-----3-------|
|-----2--------1--------0-------|----(0)----------2-----1-------|
      1     2     3     4             1     2     3     4        


|-------------------------------|-------------------------------|
|-------------------------------|-------------------------------|
|-------------------------------|-------------------------------|
|--------2-----------2----------|-----4--------3-----2----------|
|-----------2-----2--------4----|-----------3-----------2--3----|
|-----0--------0--------2-------|--------1--------0-------------|
|     1     2     3     4             1     2     3     4       |
|                                                               |
|-------------------------------|-------------------------------|
|-------------------------------|-------------------------------|
|-------------------------------|--------------------------5----|
|-----2-----------------4-------|----(4)-3--------2--------5----|
|-----2-----------------4-------|----(4)-3--------2--------3----|
|-----0-----------------2-------|----(2)-1--------0-------------|
      1     2     3     4             1     2     3     4        


|-------------------------------|-------------------------------|
|-------------------------------|-------------------------------|
|--------5----------------------|--------------5----------------|
|-----5--------------------2----|-----------5-----------4-------|
|--------------4-----3----------|-----2--3-----------4----------|
|-----------2-----1-----0-------|-----------------2--------1----|
|     1     2     3     4             1     2     3     4       |
|                                                               |
|-------------------------------|-------------------------------|
|-------------------------------|-------------------------------|
|----(5)------------------------|--------5----------------------|
|----(5)----4-----3-----2-------|----(2)-5--------4--------3----|
|----(3)----4-----3-----2-------|----(2)-3--------4--------3----|
|-----------2-----1-----0-------|----(0)----------2--------1----|
      1     2     3     4             1     2     3     4        


|-------------------------------|-------------------------------|
|-------------------------------|-------------------------------|
|--------------------------5----|-------------------------------|
|--------3-----2--------5-------|--------------------2----------|
|-----3-----------2--3----------|--------4-----3--------2--3----|
|-----------0-------------------|-----2-----1-----0-------------|
|     1     2     3     4             1     2     3     4       |
|                                                               |
|-------------------------------|-------------------------------|
|-------------------------------|-------------------------------|
|--------------------5----------|--------------------------5----|
|----(3)----2--------5----------|-----4-----3-----2--------5----|
|----(3)----2--------3----------|-----4-----3-----2--------3----|
|----(1)----0-------------------|-----2-----1-----0-------------|
      1     2     3     4             1     2     3     4        


|--------------------------------||#
|--------------------------------||#
|--------5----------------------o||#
|-----5-----------4--------3----o||#
|--------------4--------3--------||#
|-----------2--------1-----------||#
|     1     2     3     4        |
|                                |
|--------------------------------||#
|--------------------------------||#
|----(5)------------------------o||#
|----(5)----4--------3----------o||#
|----(3)----4--------3-----------||#
|-----------2--------1-----------||#
      1     2     3     4        






Part_A [324 bpm] Repeat it 4 times.






Part_C [154 bpm] Repeat it 4 times.
#||---------------------|---------------------||#
#||---------------------|---------------------||#
#||o--------------------|--------------------o||#
#||o--9~------8~--------|--5~------8~--------o||#
#||---7~------6~--------|--7~------6~---------||#
#||---------------------|---------------------||#
  |   1   2   3   4        1   2   3   4      |  
  |                                           |  
#||---------------------|---------------------||#
#||---------------------|---------------------||#
#||o--------------------|--------------------o||#
#||o--9~------8~--------|--5~------8~--------o||#
#||---7~------6~--------|--7~------6~---------||#
#||---------------------|---------------------||#
      1   2   3   4        1   2   3   4         






Part_D [276 bpm] Repeat it 8 times.
#||---------------------|--------------------|--------------------|--------------------|
#||---------------------|--------------------|--------------------|--------------------|
#||o--------------------|--------------------|--------------------|--------------------|
#||o--2~----------------|--3~--2~------------|--3~----------------|--3~----------------|
#||---2~----------------|--3~--2~------------|--3~----------------|--3~----------------|
#||---0~----------------|--1~--0~------------|--1~----------------|--1~----------------|
  |   1   2   3   4        1   2   3   4        1   2   3   4        1   2   3   4     |
  |                                                                                    |
#||---------------------|--------------------|--------------------|--------------------|
#||---------------------|--------------------|--------------------|--------------------|
#||o--------------------|--------------------|--------------------|--------------------|
#||o--2~----------------|--3~--2~------------|--3~----------------|--3~----------------|
#||---2~----------------|--3~--2~------------|--3~----------------|--3~----------------|
#||---0~----------------|--1~--0~------------|--1~----------------|--1~----------------|
      1   2   3   4        1   2   3   4        1   2   3   4        1   2   3   4      


|--------------------|--------------------|--------------------|---------------------||#
|--------------------|--------------------|--------------------|---------------------||#
|--------------------|--------------------|--------------------|--------------------o||#
|--2~----------------|--3~--2~------------|--4~----------------|--3~----------------o||#
|--2~----------------|--3~--2~------------|--4~----------------|--3~-----------------||#
|--0~----------------|--1~--0~------------|--2~----------------|--1~-----------------||#
|  1   2   3   4        1   2   3   4        1   2   3   4        1   2   3   4      |  
|                                                                                    |  
|--------------------|--------------------|--------------------|---------------------||#
|--------------------|--------------------|--------------------|---------------------||#
|--------------------|--------------------|--------------------|--------------------o||#
|--2~----------------|--3~--2~------------|--4~----------------|--3~----------------o||#
|--2~----------------|--3~--2~------------|--4~----------------|--3~-----------------||#
|--0~----------------|--1~--0~------------|--2~----------------|--1~-----------------||#
   1   2   3   4        1   2   3   4        1   2   3   4        1   2   3   4         






Part_E [276 bpm] Repeat it 4 times.
#||---------------------|--------------------|--------------------|--------------------|
#||---------------------|--------------------|--------------------|--------------------|
#||o--------------------|--------------------|--6~----------------|--6~----------------|
#||o--2~----------------|--3~--2~------------|--6~----------------|--6~----------------|
#||---2~----------------|--3~--2~------------|--4~----------------|--4~----------------|
#||---0~----------------|--1~--0~------------|--------------------|--------------------|
  |   1   2   3   4        1   2   3   4        1   2   3   4        1   2   3   4     |
  |                                                                                    |
#||---------------------|--------------------|--------------------|--------------------|
#||---------------------|--------------------|--------------------|--------------------|
#||o--------------------|--------------------|--6~----------------|--6~----------------|
#||o--2~----------------|--3~--2~------------|--6~----------------|--6~----------------|
#||---2~----------------|--3~--2~------------|--4~----------------|--4~----------------|
#||---0~----------------|--1~--0~------------|--------------------|--------------------|
      1   2   3   4        1   2   3   4        1   2   3   4        1   2   3   4      


|--------------------|--------------------|--------------------|---------------------||#
|--------------------|--------------------|--------------------|---------------------||#
|--------------------|--------------------|--6~----------------|--5~----------------o||#
|--2~----------------|--3~--2~------------|--6~----------------|--5~----------------o||#
|--2~----------------|--3~--2~------------|--4~----------------|--3~-----------------||#
|--0~----------------|--1~--0~------------|--------------------|---------------------||#
|  1   2   3   4        1   2   3   4        1   2   3   4        1   2   3   4      |  
|                                                                                    |  
|--------------------|--------------------|--------------------|---------------------||#
|--------------------|--------------------|--------------------|---------------------||#
|--------------------|--------------------|--6~----------------|--5~----------------o||#
|--2~----------------|--3~--2~------------|--6~----------------|--5~----------------o||#
|--2~----------------|--3~--2~------------|--4~----------------|--3~-----------------||#
|--0~----------------|--1~--0~------------|--------------------|---------------------||#
   1   2   3   4        1   2   3   4        1   2   3   4        1   2   3   4         






Part_D [276 bpm] Repeat it 4 times.






Part_E [276 bpm] Repeat it 2 times.






Part_D [276 bpm] Repeat it 2 times.







Part_F [223 bpm]
#||---------------------|--------------------|--------------------|--------------------|
#||---------------------|--------------------|--------------------|--------------------|
#||o--------------------|--------------------|--------------------|--------------------|
#||o--2----(2)2----(2)--|--2----(2)2----(2)--|--4----(4)4----(4)--|--------------------|
#||---2----(2)2----(2)--|--2----(2)2----(2)--|--4----(4)4----(4)--|--5----(5)4----(4)--|
#||---0---0-0-0---0-0---|--0---0-0-0---0-0---|--2---2-2-2---2-2---|--2---2-2-2---2-2---|
  |   1   2   3   4        1   2   3   4        1   2   3   4        1   2   3   4     |
  |                                                                                    |
#||---------------------|--------------------|--------------------|--------------------|
#||---------------------|--------------------|--------------------|--------------------|
#||o--------------------|--------------------|--------------------|--------------------|
#||o--2----(2)2----(2)--|--2----(2)2----(2)--|--4----(4)4----(4)--|--------------------|
#||---2----(2)2----(2)--|--2----(2)2----(2)--|--4----(4)4----(4)--|--5----(5)4----(4)--|
#||---0---0-0-0---0-0---|--0---0-0-0---0-0---|--2---2-2-2---2-2---|--2---2-2-2---2-2---|
      1   2   3   4        1   2   3   4        1   2   3   4        1   2   3   4      


|--------------------|--------------------|--------------------|--------------------|
|--------------------|--------------------|--------------------|--------------------|
|--------------------|--------------------|--------------------|--------------------|
|--2----(2)2----(2)--|--2----(2)2----(2)--|--5----(5)5----(5)--|--5----(5)5----(5)--|
|--2----(2)2----(2)--|--2----(2)2----(2)--|--5----(5)5----(5)--|--5----(5)5----(5)--|
|--0---0-0-0---0-0---|--0---0-0-0---0-0---|--3---3-3-3---3-3---|--3---3-3-3---3-3---|
|  1   2   3   4        1   2   3   4        1   2   3   4        1   2   3   4     |
|                                                                                   |
|--------------------|--------------------|--------------------|--------------------|
|--------------------|--------------------|--------------------|--------------------|
|--------------------|--------------------|--------------------|--------------------|
|--2----(2)2----(2)--|--2----(2)2----(2)--|--5----(5)5----(5)--|--5----(5)5----(5)--|
|--2----(2)2----(2)--|--2----(2)2----(2)--|--5----(5)5----(5)--|--5----(5)5----(5)--|
|--0---0-0-0---0-0---|--0---0-0-0---0-0---|--3---3-3-3---3-3---|--3---3-3-3---3-3---|
   1   2   3   4        1   2   3   4        1   2   3   4        1   2   3   4      


|--------------------|--------------------|--------------------|--------------------|
|--------------------|--------------------|--------------------|--------------------|
|--------------------|--------------------|--------------------|--------------------|
|--2----(2)2----(2)--|--2----(2)2----(2)--|--4----(4)4----(4)--|--------------------|
|--2----(2)2----(2)--|--2----(2)2----(2)--|--4----(4)4----(4)--|--5----(5)4----(4)--|
|--0---0-0-0---0-0---|--0---0-0-0---0-0---|--2---2-2-2---2-2---|--2---2-2-2---2-2---|
|  1   2   3   4        1   2   3   4        1   2   3   4        1   2   3   4     |
|                                                                                   |
|--------------------|--------------------|--------------------|--------------------|
|--------------------|--------------------|--------------------|--------------------|
|--------------------|--------------------|--------------------|--------------------|
|--2----(2)2----(2)--|--2----(2)2----(2)--|--4----(4)4----(4)--|--------------------|
|--2----(2)2----(2)--|--2----(2)2----(2)--|--4----(4)4----(4)--|--5----(5)4----(4)--|
|--0---0-0-0---0-0---|--0---0-0-0---0-0---|--2---2-2-2---2-2---|--2---2-2-2---2-2---|
   1   2   3   4        1   2   3   4        1   2   3   4        1   2   3   4      


|--------------------|--------------------|--------------------|---------------------||#
|--------------------|--------------------|--------------------|---------------------||#
|--------------------|--------------------|--------------------|--------------------o||#
|--2----(2)2----(2)--|--2----(2)2----(2)--|--6----(6)6----(6)--|--6----(6)6----(6)--o||#
|--2----(2)2----(2)--|--2----(2)2----(2)--|--6----(6)6----(6)--|--6----(6)6----(6)---||#
|--0---0-0-0---0-0---|--0---0-0-0---0-0---|--4---4-4-4---4-4---|--4---4-4-4---4-4----||#
|  1   2   3   4        1   2   3   4        1   2   3   4        1   2   3   4      |  
|                                                                                    |  
|--------------------|--------------------|--------------------|---------------------||#
|--------------------|--------------------|--------------------|---------------------||#
|--------------------|--------------------|--------------------|--------------------o||#
|--2----(2)2----(2)--|--2----(2)2----(2)--|--6----(6)6----(6)--|--6----(6)6----(6)--o||#
|--2----(2)2----(2)--|--2----(2)2----(2)--|--6----(6)6----(6)--|--6----(6)6----(6)---||#
|--0---0-0-0---0-0---|--0---0-0-0---0-0---|--4---4-4-4---4-4---|--4---4-4-4---4-4----||#
   1   2   3   4        1   2   3   4        1   2   3   4        1   2   3   4         








Part_G [143 bpm] Repeat it 4 times.
#||---------------------|--------------------|--------------------|---------------------||#
#||---------------------|--------------------|--------------------|---------------------||#
#||o--------------------|--------------------|--------------------|--------------------o||#
#||o--9~----------------|-12~----------------|-11~----------------|-12~-----11~--------o||#
#||---7~----------------|-10~----------------|--9~----------------|--9~------9~---------||#
#||---------------------|--------------------|--------------------|---------------------||#
  |   1   2   3   4        1   2   3   4        1   2   3   4        1   2   3   4      |  
  |                                                                                     |  
#||---------------------|--------------------|--------------------|---------------------||#
#||---------------------|--------------------|--------------------|---------------------||#
#||o--------------------|--------------------|--------------------|--------------------o||#
#||o--9~----------------|-12~----------------|-11~----------------|-12~-----11~--------o||#
#||---7~----------------|-10~----------------|--9~----------------|--9~------9~---------||#
#||---------------------|--------------------|--------------------|---------------------||#
      1   2   3   4        1   2   3   4        1   2   3   4        1   2   3   4         







Part_H [143 bpm] Repeat it 2 times.
#||---------------------|--------------------|--------------------|--------------------|
#||---------------------|--------------------|--------------------|--------------------|
#||o--------------------|--------------------|--------------------|--------------------|
#||o--5~----------------|--9~----------------|--8~----------------|--8~----------------|
#||---7~----------------|-10~----------------|--9~----------------|--9~----------------|
#||---------------------|--------------------|--------------------|--------------------|
  |   1   2   3   4        1   2   3   4        1   2   3   4        1   2   3   4     |
  |                                                                                    |
#||---------------------|--------------------|--------------------|--------------------|
#||---------------------|--------------------|--------------------|--------------------|
#||o--------------------|--------------------|--------------------|--------------------|
#||o--5~----------------|--9~----------------|--8~----------------|--8~----------------|
#||---7~----------------|-10~----------------|--9~----------------|--9~----------------|
#||---------------------|--------------------|--------------------|--------------------|
      1   2   3   4        1   2   3   4        1   2   3   4        1   2   3   4      


|--------------------|--------------------|--------------------|---------------------||#
|--------------------|--------------------|--------------------|---------------------||#
|--------------------|--------------------|--------------------|--------------------o||#
|--5~----------------|--9~----------------|-11~----------------|-12~-----11~--------o||#
|--7~----------------|-10~----------------|--9~----------------|--9~------9~---------||#
|--------------------|--------------------|--------------------|---------------------||#
|  1   2   3   4        1   2   3   4        1   2   3   4        1   2   3   4      |  
|                                                                                    |  
|--------------------|--------------------|--------------------|---------------------||#
|--------------------|--------------------|--------------------|---------------------||#
|--------------------|--------------------|--------------------|--------------------o||#
|--5~----------------|--9~----------------|-11~----------------|-12~-----11~--------o||#
|--7~----------------|-10~----------------|--9~----------------|--9~------9~---------||#
|--------------------|--------------------|--------------------|---------------------||#
   1   2   3   4        1   2   3   4        1   2   3   4        1   2   3   4         






Part_I [143 bpm] Repeat it 2 times.
#||---------------------|--------------------|--------------------|--------------------|
#||---------------------|--------------------|--------------------|--------------------|
#||o--------------------|--------------------|--------------------|--------------------|
#||o--5~----------------|--9~----------------|--8~----------------|--7~------8~--------|
#||---7~----------------|-10~----------------|--9~----------------|--9~------9~--------|
#||---------------------|--------------------|--------------------|--------------------|
  |   1   2   3   4        1   2   3   4        1   2   3   4        1   2   3   4     |
  |                                                                                    |
#||---------------------|--------------------|--------------------|--------------------|
#||---------------------|--------------------|--------------------|--------------------|
#||o--------------------|--------------------|--------------------|--------------------|
#||o--5~----------------|--9~----------------|--8~----------------|--7~------8~--------|
#||---7~----------------|-10~----------------|--9~----------------|--9~------9~--------|
#||---------------------|--------------------|--------------------|--------------------|
      1   2   3   4        1   2   3   4        1   2   3   4        1   2   3   4      


|--------------------|--------------------|--------------------|--------------------|
|--------------------|--------------------|--------------------|--------------------|
|--------------------|--------------------|--------------------|--------------------|
|--5~----------------|--9~----------------|-11~----------------|-12~-----11~--------|
|--7~----------------|-10~----------------|--9~----------------|--9~------9~--------|
|--------------------|--------------------|--------------------|--------------------|
|  1   2   3   4        1   2   3   4        1   2   3   4        1   2   3   4     |
|                                                                                   |
|--------------------|--------------------|--------------------|--------------------|
|--------------------|--------------------|--------------------|--------------------|
|--------------------|--------------------|--------------------|--------------------|
|--5~----------------|--9~----------------|-11~----------------|-12~-----11~--------|
|--7~----------------|-10~----------------|--9~----------------|--9~------9~--------|
|--------------------|--------------------|--------------------|--------------------|
   1   2   3   4        1   2   3   4        1   2   3   4        1   2   3   4      


|--------------------|--------------------|--------------------|--------------------|
|--------------------|--------------------|--------------------|--------------------|
|--------------------|--------------------|--------------------|--------------------|
|--5~----------------|--9~----------------|--8~----------------|--7~------8~--------|
|--7~----------------|-10~----------------|--9~----------------|--9~------9~--------|
|--------------------|--------------------|--------------------|--------------------|
|  1   2   3   4        1   2   3   4        1   2   3   4        1   2   3   4     |
|                                                                                   |
|--------------------|--------------------|--------------------|--------------------|
|--------------------|--------------------|--------------------|--------------------|
|--------------------|--------------------|--------------------|--------------------|
|--5~----------------|--9~----------------|--8~----------------|--7~------8~--------|
|--7~----------------|-10~----------------|--9~----------------|--9~------9~--------|
|--------------------|--------------------|--------------------|--------------------|
   1   2   3   4        1   2   3   4        1   2   3   4        1   2   3   4      


|--------------------|--------------------|--------------------|-------------||#
|--------------------|--------------------|--------------------|-------------||#
|--------------------|--------------------|--------------------|------------o||#
|--5~----------------|--9~----------------|-12~----------------|-12~--------o||#
|--7~----------------|-10~----------------|-10~----------------|-10~---------||#
|--------------------|--------------------|--------------------|-------------||#
   1   2   3   4        1   2   3   4        1   2   3   4        1   2      |  
|                                                                            |  
|--------------------|--------------------|--------------------|-------------||#
|--------------------|--------------------|--------------------|-------------||#
|--------------------|--------------------|--------------------|------------o||#
|--5~----------------|--9~----------------|-12~----------------|-12~--------o||#
|--7~----------------|-10~----------------|-10~----------------|-10~---------||#
|--------------------|--------------------|--------------------|-------------||#
   1   2   3   4        1   2   3   4        1   2   3   4        1   2         






Part_J [145 bpm] Repeat it 0 times. [#\: Slide down all over the string with finger of the fret hand.]
#||---------------------|--------------------|--------------------|--------------------|
#||---------------------|--------------------|--------------------|--------------------|
#||o--------------------|--------------------|--------------------|--------------------|
#||o--2-2-2-2-2-2-2-2---|--3-2-2-2-2-2-2-2---|--3-3-3-3-3-3-3-3---|--3-3-3-3-3-3-3-3---|
#||---2-2-2-2-2-2-2-2---|--3-2-2-2-2-2-2-2---|--3-3-3-3-3-3-3-3---|--3-3-3-3-3-3-3-3---|
#||---0-0-0-0-0-0-0-0---|--1-0-0-0-0-0-0-0---|--1-1-1-1-1-1-1-1---|--1-1-1-1-1-1-1-1---|
  |   1   2   3   4        1   2   3   4        1   2   3   4        1   2   3   4     |
  |                                                                                    |
#||---------------------|--------------------|--------------------|--------------------|
#||---------------------|--------------------|--------------------|--------------------|
#||o--------------------|--------------------|--------------------|--------------------|
#||o--2-#---------------|--------------------|--------------------|--------------------|
#||---2-#---------------|--------------------|--------------------|--------------------|
#||---0-#---------------|--------------------|--------------------|--------------------|
      1   2   3   4        1   2   3   4        1   2   3   4        1   2   3   4      

|--------------------|--------------------|--------------------|--------------------|
|--------------------|--------------------|--------------------|--------------------|
|--------------------|--------------------|--------------------|--------------------|
|--2-2-2-2-2-2-2-2---|--3-2-2-2-2-2-2-2---|--4-4-4-4-4-4-4-4---|--3-3-3-3-3-3-3-3---|
|--2-2-2-2-2-2-2-2---|--3-2-2-2-2-2-2-2---|--4-4-4-4-4-4-4-4---|--3-3-3-3-3-3-3-3---|
|--0-0-0-0-0-0-0-0---|--1-0-0-0-0-0-0-0---|--2-2-2-2-2-2-2-2---|--1-1-1-1-1-1-1-1---|
|  1   2   3   4        1   2   3   4        1   2   3   4        1   2   3   4     |
|                                                                                   |
|--------------------|--------------------|--------------------|--------------------|
|--------------------|--------------------|--------------------|--------------------|
|--------------------|--------------------|--#\--\---\---\-----|--\---\---\---\-----|
|--------------------|--------------------|--------------------|--------------------|
|--------------------|--------------------|--------------------|--------------------|
|--------------------|--------------------|--------------------|--------------------|
   1   2   3   4        1   2   3   4        1   2   3   4        1   2   3   4      


|--------------------|--------------------|--------------------|--------------------|
|--------------------|--------------------|--------------------|--------------------|
|--------------------|--------------------|--------------------|--------------------|
|--2-2-2-2-2-2-2-2---|--3-2-2-2-2-2-2-2---|--3-3-3-3-3-3-3-3---|--3-3-3-3-3-3-3-3---|
|--2-2-2-2-2-2-2-2---|--3-2-2-2-2-2-2-2---|--3-3-3-3-3-3-3-3---|--3-3-3-3-3-3-3-3---|
|--0-0-0-0-0-0-0-0---|--1-0-0-0-0-0-0-0---|--1-1-1-1-1-1-1-1---|--1-1-1-1-1-1-1-1---|
|  1   2   3   4        1   2   3   4        1   2   3   4        1   2   3   4     |
|                                                                                   |
|--------------------|--------------------|--------------------|--------------------|
|--------------------|--------------------|--------------------|--------------------|
|--------------------|--------------------|--------------------|--------------------|
|--2-----------------|-(2)----------------|--3-----------------|-(3)----------------|
|--2-----------------|-(2)----------------|--3-----------------|-(3)----------------|
|--0-----------------|-(0)----------------|--1-----------------|-(1)----------------|
   1   2   3   4        1   2   3   4        1   2   3   4        1   2   3   4      


|--------------------|--------------------|--------------------|--------------------||#
|--------------------|--------------------|--------------------|--------------------||#
|--------------------|--------------------|--------------------|--------------------||#
|--2-2-2-2-2-2-2-2---|--3-2-2-2-2-2-2-2---|--4-4-4-4-4-4-4-4---|--3-3-3-3-3-3-3-3---||#
|--2-2-2-2-2-2-2-2---|--3-2-2-2-2-2-2-2---|--4-4-4-4-4-4-4-4---|--3-3-3-3-3-3-3-3---||#
|--0-0-0-0-0-0-0-0---|--1-0-0-0-0-0-0-0---|--2-2-2-2-2-2-2-2---|--1-1-1-1-1-1-1-1---||#
|  1   2   3   4        1   2   3   4        1   2   3   4        1   2   3   4     |  
|                                                                                   |  
|--------------------|--------------------|--------------------|--------------------||#
|--------------------|--------------------|--------------------|--------------------||#
|--------------------|--------------------|--------------------|--------------------||#
|--2-----------------|-(2)----------------|--4-----------------|--3-----------------||#
|--2-----------------|-(2)----------------|--4-----------------|--3-----------------||#
|--0-----------------|-(0)----------------|--2-----------------|--1-----------------||#
   1   2   3   4        1   2   3   4        1   2   3   4        1   2   3   4        






Part_D [286 bpm] Repeat it 6 times.






Part_E [286 bpm] Repeat it 4 times.






=== END OF TAB ===   
Suggest correction
Give kudos to tab author, rate the tab!
1 2 3 4 5
comments
print report bad tab
guest
You may want to rate the tab now too:
select rating
Wanna post a correction for this tab? Suggest correction