Oops, an error
Loading. Please wait.

Heal In Time tab

version 2
version 2

Whole song

29 views 1 this week
no commentswrite comment
1 2 3 4 5
3 more votes to show rating
add to favorites
×
Save as Personal and add changes to this tab that will be seen only by you. Learn more ›
×
You can save this tab as Personal to edit and correct it or add notes. All changes will be seen only by you. Learn more »
launch autoscroll
font size
0
reset
how to read this tab
guitar tuner
edit
Autoscroll
slow
fast
+/-
esc
set tempo
stop
Song: Heal in Time
Artist: Dark New Day
Album: Twelve Year Silence (2005)
Tuning: Modified Drop A# (A#,F,A#,D#,G#,A#)

Okay, here is my submission of "Heal in Time" by Dark New Day, off their album "Twelve Year Silence"
amazing album, amazing song, if someone wants to help in improving the tab, feel free to comment,i´m not 100%
sure if the song is right, or if the tuning is right, so, feel free to help me, well lets begin!

PS: i took some parts of the song(the solo) from dndChuck, so the credit is also for him

PSS: i recommend you listen to the song, otherwise, you might get lost while reading this, this song is kind
of fast

Intro:

A#|------------------------------------------------------------------------------------------------|
G#|------------------------------------------------------------------------------------------------|
D#|--------------------------10101010109--9-9-9-9-9-9-9-8--8-8-8-8-8-8-8-7--7-7--------------------| x2
A#|--------------------------x-x-x-x-x-x--x-x-x-x-x-x-x-x--x-x-x-x-x-x-x-x--x-x--------------------|
F |--------------------------8-8-8-8-8/7--7-7-7-7-7-7-7/6--6-6-6-6-6-6-6/5--5-5--------------------|
A#|--5/7--7-7-7-7-7-7/6-6-6------------------------------------------------------------------------|
         \___/                            \___/  
          PM                               PM


A#|------------------------------------------------------------------------------------------------|
G#|------------------------------------------------------------------------------------------------|
D#|------------------------------------------------------------------------------------------------|
A#|------------------------------------------------------------------------------------------------| x2
F |------------------------------------------------------------------------------------------------|
A#|--5/7-7-7-7-7-7-7/6-6-6-6/3-3-3-3-3/2-2-2-2-2-2-2/1-1-1-1-1-1/0-0-0-0-0-0-----------------------|


______________________________________________________________________________________________________________
Verse 1:
"There's something every day that keeps on pulling at me...."

A#|------------------------------------------------------------------------------------------------|
G#|------------------------------------------------------------------------------------------------|
D#|--------------------------10101010109--9-9-9-9-9-9-9-8--8-8-8-8-8-8-8-7--7-7--------------------| x4
A#|--------------------------x-x-x-x-x-x--x-x-x-x-x-x-x-x--x-x-x-x-x-x-x-x--x-x--------------------|
F |--------------------------8-8-8-8-8/7--7-7-7-7-7-7-7/6--6-6-6-6-6-6-6/5--5-5--------------------|
A#|--5/7--7-7-7-7-7-7/6-6-6------------------------------------------------------------------------|
         \___/                           \___/  
          PM                              PM

______________________________________________________________________________________________________________
Pre-Chorus:
"My oh my.."

*Here the two guitars play different things.*

Guitar 1 (Lead):

A#|-------------------------------------------------5*----------7*---------|
G#|----------12*-----------12*-----------------5*--------------------------|
D#|---7*------------7*------------7*------5*---------------5*--------7*----|
A#|------------------------------------------------------------------------|
F |------------------------------------------------------------------------|
A#|------------------------------------------------------------------------|

A#|-------------------------------------------------5*-------------|
G#|----------12*-----------12*-----------------5*-------------0----|
D#|---7*------------7*------------7*------5*---------------5-------|
A#|----------------------------------------------------------------|
F |----------------------------------------------------------------|
A#|----------------------------------------------------------------|


Guitar 2 (Rhythm):

**Play with low distortion (turn the volume knob down a bit if you want)**

A#|--------------------|
G#|--------------------|
D#|--------------------|
A#|--0----3----0----3--|
F |--0----3----0----3--|
A#|--0----3----0----3--|

______________________________________________________________________________________________________________
Chorus:

"This time,I'm all right..."

A#|---------------------------------------------------------------------------------------|
G#|---------------------------------------------------------------------------------------|
D#|------------------12--12--1111-1111---------------------------------------/15--14--10--|
A#|-x-x-0--0-0--0-0---x--x---x-x--x-x---7--7-7--7-10-10-10-10--3--3-3--3-3---/-x--x---x---|
F |-x-x-0--0-0--0-0--10--10--9-9--9-9---7--7-7--7-7--7--7--7---3--3-3--3-3---/13--12--8---|
A#|-x-x-0--0-0--0-0---------------------7--7-7--7-7--7--7--7---3--3-3--3-3----------------|

A#|-------------------------------------|
G#|-------------------------------------|
D#|-------------------------------------|
A#|--5--5-5--7--7-7--8-8-8--7-7---------|
F |--5--5-5--5--5-5--5-5-5--5-5---------|
A#|--5--5-5--5--5-5--5-5-5--5-5---------|

A#|------------------------------------------------------------------------------------|
G#|------------------------------------------------------------------------------------|
D#|---------------12--12--1111-1111---------------------------------------/15--14--10--|
A#|--0--0-0--0-0---x--x---x-x--x-x---7--7-7--7-10-10-10-10--3--3-3--3-3---/-x--x---x---|
F |--0--0-0--0-0--10--10--9-9--9-9---7--7-7--7-7--7--7--7---3--3-3--3-3---/13--12--8---|
A#|--0--0-0--0-0---------------------7--7-7--7-7--7--7--7---3--3-3--3-3----------------|

A#|-------------------------------------|
G#|-------------------------------------|
D#|-------------------------------------|
A#|--5--5-5--7--7-7--8-8-8--7-7---------|
F |--5--5-5--5--5-5--5-5-5--5-5---------|
A#|--5--5-5--5--5-5--5-5-5--5-5---------|

Post-Chorus:

A#|------------------------------------------------------------------------------------------------|
G#|------------------------------------------------------------------------------------------------|
D#|------------------------------------------------------------------------------------------------|
A#|------------------------------------------------------------------------------------------------| x2
F |------------------------------------------------------------------------------------------------|
A#|--5/7-7-7-7-7-7-7/6-6-6-6/3-3-3-3-3/2-2-2-2-2-2-2/1-1-1-1-1-1/0-0-0-0-0-0-----------------------|


Listen to the song, so you don't get lost
______________________________________________________________________________________________________________
Verse 2:
"It's not too hard to see you left this inside me...."

A#|------------------------------------------------------------------------------------------------|
G#|------------------------------------------------------------------------------------------------|
D#|--------------------------10101010109--9-9-9-9-9-9-9-8--8-8-8-8-8-8-8-7--7-7--------------------|
A#|--------------------------x-x-x-x-x-x--x-x-x-x-x-x-x-x--x-x-x-x-x-x-x-x--x-x--------------------| x4
F |--------------------------8-8-8-8-8/7--7-7-7-7-7-7-7/6--6-6-6-6-6-6-6/5--5-5--------------------|
A#|--5/7--7-7-7-7-7-7/6-6-6------------------------------------------------------------------------|
         \___/                           \___/  
          PM                              PM

______________________________________________________________________________________________________________
Pre-Chorus:
"My oh my.."

*Again, both guitars play different things*

Guitar 1 (Lead):

A#|-------------------------------------------------5*----------7*---------|
G#|----------12*-----------12*-----------------5*--------------------------|
D#|---7*------------7*------------7*------5*---------------5*--------7*----|
A#|------------------------------------------------------------------------|
F |------------------------------------------------------------------------|
A#|------------------------------------------------------------------------|

A#|-------------------------------------------------5*-------------|
G#|----------12*-----------12*-----------------5*-------------0----|
D#|---7*------------7*------------7*------5*---------------5-------|
A#|----------------------------------------------------------------|
F |----------------------------------------------------------------|
A#|----------------------------------------------------------------|


Guitar 2 (Rhythm):

*again, with low distortion.*

A#|--------------------|
G#|--------------------|
D#|--------------------|
A#|--0----3----0----3--|
F |--0----3----0----3--|
A#|--0----3----0----3--|
______________________________________________________________________________________________________________
Chorus:

"This time,I'm all right..."

A#|---------------------------------------------------------------------------------------|
G#|---------------------------------------------------------------------------------------|
D#|------------------12--12--1111-1111---------------------------------------/15--14--10--|
A#|-x-x-0--0-0--0-0---x--x---x-x--x-x---7--7-7--7-10-10-10-10--3--3-3--3-3---/-x--x---x---|
F |-x-x-0--0-0--0-0--10--10--9-9--9-9---7--7-7--7-7--7--7--7---3--3-3--3-3---/13--12--8---|
A#|-x-x-0--0-0--0-0---------------------7--7-7--7-7--7--7--7---3--3-3--3-3----------------|

A#|-------------------------------------|
G#|-------------------------------------|
D#|-------------------------------------|
A#|--5--5-5--7--7-7--8-8-8--7-7---------|
F |--5--5-5--5--5-5--5-5-5--5-5---------|
A#|--5--5-5--5--5-5--5-5-5--5-5---------|

A#|------------------------------------------------------------------------------------|
G#|------------------------------------------------------------------------------------|
D#|---------------12--12--1111-1111---------------------------------------/15--14--10--|
A#|--0--0-0--0-0---x--x---x-x--x-x---7--7-7--7-10-10-10-10--3--3-3--3-3---/-x--x---x---|
F |--0--0-0--0-0--10--10--9-9--9-9---7--7-7--7-7--7--7--7---3--3-3--3-3---/13--12--8---|
A#|--0--0-0--0-0---------------------7--7-7--7-7--7--7--7---3--3-3--3-3----------------|

A#|-------------------------------------|
G#|-------------------------------------|
D#|-------------------------------------|
A#|--5--5-5--7--7-7--8-8-8--7-7---------|
F |--5--5-5--5--5-5--5-5-5--5-5---------|
A#|--5--5-5--5--5-5--5-5-5--5-5---------|
______________________________________________________________________________________________________________
Solo:

- Again, here the Guitars split up -

Guitar 1 (Lead):
A#|------------------------------------------------------------------------------------------------|
G#|------------------------------------------------------------------------------------------------|
D#|--12-11-11-11-11-11-11--12-11-11-11-11-11-11--12-11-11-11-11-11-11--12-11-11-11-11-11-12--14----|
A#|------------------------------------------------------------------------------------------------|
F |------------------------------------------------------------------------------------------------|
A#|------------------------------------------------------------------------------------------------|
        \______________/      \______________/      \______________/     \_____________/
              PM                    PM                     PM                 PM
A#|------------------------------------------------------------------------------------------------|
G#|------------------------------------------------------------------------------------------------|
D#|--12-11-11-11-11-11-11--12-11-11-11-11-11-11--12-11-11-11-11-11-11--12-11-11-11-11-11-12--14----|
A#|------------------------------------------------------------------------------------------------|
F |------------------------------------------------------------------------------------------------|
A#|------------------------------------------------------------------------------------------------|
        \______________/      \______________/      \______________/     \_____________/
              PM                    PM                     PM                 PM
A#|------------------------------------------------------------------------------------------------|
G#|------------------------------------------------------------------------------------------------|
D#|--12-11-11-11-11-11-11--12-11-11-11-11-11-11--12-11-11-11-11-11-11--12-11-11-11-11-11-12--14----|
A#|------------------------------------------------------------------------------------------------|
F |------------------------------------------------------------------------------------------------|
A#|------------------------------------------------------------------------------------------------|
        \______________/      \______________/      \______________/     \_____________/
              PM                    PM                     PM                 PM

A#|------------------------------0-----0----------0----0----------0----0-----------12----12-----12-------12-| 
G#|-11-11-11-15-11-11---------------------------------------------------------------------------------------|
D#|---------------------12/14/12----11---12/14/12---11---12/14/12---11------14^-------14----14------14^-----|
A#|---------------------------------------------------------------------------------------------------------|
F |---------------------------------------------------------------------------------------------------------|
A#|---------------------------------------------------------------------------------------------------------|

A#-----------0-----0----------0----0----------0----0-----------12----12-----12----------12--------|
G#------------------------------------------------------------------------------------------------|
D#--12/14/12----11---12/14/12---11---12/14/12---11------14^-------14----14------14^---------------|
A#------------------------------------------------------------------------------------------------|
F ------------------------------------------------------------------------------------------------|
A#------------------------------------------------------------------------------------------------|

A#|-----12-----12-----------0-----0----------0----0----------0----0---------12----12-----12--------|
G#|------------------------------------------------------------------------------------------------|
D#|--14----14------12/14/12----11---12/14/12---11---12/14/12---11----14^-------14----14------------|
A#|------------------------------------------------------------------------------------------------|
F |------------------------------------------------------------------------------------------------|
A#|------------------------------------------------------------------------------------------------|


A#|---------12----12---12-----------------------------------------0--0--0---0--0--0----0--0--0--|
G#|-----------------------------15^-15/12-14~--12-15^-15/12-14~---14/12-12--12/10-10---10/9--9--|
D#|--14^------14---14---------------------------------------------------------------------------|
A#|---------------------------------------------------------------------------------------------|
F |---------------------------------------------------------------------------------------------|
A#----------------------------------------------------------------------------------------------|

A#|---0-0-0--0-0--0-0------------------------------------0--0--0---0--0--0---0--0-0--0-0-0-------|
G#|---9/7-7--7/9--9/12-------15^-15/12-14~---17^-19-17~--14/12-12--12/10-10--10/9-9--9/7-7-------|
D#|----------------------------------------------------------------------------------------------|
A#|----------------------------------------------------------------------------------------------|
F |----------------------------------------------------------------------------------------------|
A#|----------------------------------------------------------------------------------------------|

A#|---0-0-0--0--0--0---0--0-0--0-0-0-0------|
G#|---7/9-9--12/10-10--10/9-9--9/7-7-7------|
D#|-----------------------------------------|
A#|-----------------------------------------|
F |-----------------------------------------|
A#|-----------------------------------------|
                          
**I strongly suggest to listen to the song really carefully, this solo is kind of fast and it's easy to
mess up i say this so you don't get lost


Guitar 2(Rhythm)

A#|------------------------------------------------------00000000000--00000000000----|
G#|------------------------------------------------------00000000000--00000000000----|
D#|------------------------------------------------------55555555555--88888888888----|
A#|------------------------------------------------------55555555555--88888888888----|
F |----------------3----------------3--------------------33333333333--66666666666----|
A#|--0--0-3-0----0---0-----0--0-3-0---0----0--0-3-0----0-----------------------------|

A#|---------------------------------------------------------------------------------------------------------|
G#|---------------------------------------------------------------------------------------------------------|
D#|--------5---------------------55555555555-8888888888-------5----------------------55555555555-333333333--|
A#|-3-0--0-5-0--0--0---3---0--0--55555555555-8888888888-3-0-0-5-0---0--0---3---0--0--55555555555-111111111--|
F |-3-0--0-3-0--0--0---3---0--0--33333333333-6666666666-3-0-0-3-0---0--0---3---0--0--33333333333-111111111--|
A#|-3-0--0---0--0--0---3---0--0-------------------------3-0-0---0---0--0---3---0--0--------------111111111--|


A#|--------------------------00000000000-00000000000---------------------------00000000000-00000000000-|
G#|--------------------------00000000000-00000000000---------------------------00000000000-00000000000-|
D#|----------5---------------55555555555-88888888888-----------5---------------55555555555-88888888888-|
A#|-3-000000-5-0000000-3-00--55555555555-88888888888--3-000000-5-0000000-3-00--55555555555-88888888888-|
F |-3-000000-3-0000000-3-00--33333333333-66666666666--3-000000-3-0000000-3-00--33333333333-66666666666-|
A#|-3-000000---0000000-3-00---------------------------3-000000---0000000-3-00--------------------------|


A#|---00000000000-00000000000--|
G#|---00000000000-00000000000--|
D#|---55555555555-88888888888--|
A#|---55555555555-88888888888--|
F |---33333333333-66666666666--|
A#|----------------------------|
______________________________________________________________________________________________________________
Final Chorus:

"This time,I'm all right..."

A#|-----------------------------------------------------------------------------------------|
G#|-----------------------------------------------------------------------------------------|
D#|--------------------12--12--1111-1111---------------------------------------/15--14--10--|
A#|-0-0-0-0--0-0--0-0---x--x---x-x--x-x---7--7-7--7-10-10-10-10--3--3-3--3-3---/-x--x---x---|
F |-0-0-0-0--0-0--0-0--10--10--9-9--9-9---7--7-7--7-7--7--7--7---3--3-3--3-3---/13--12--8---|
A#|-0-0-0-0--0-0--0-0---------------------7--7-7--7-7--7--7--7---3--3-3--3-3----------------|
    \___/
     PM
A#|-------------------------------------|
G#|-------------------------------------|
D#|-------------------------------------|
A#|--5--5-5--7--7-7--8-8-8--7-7---------|
F |--5--5-5--5--5-5--5-5-5--5-5---------|
A#|--5--5-5--5--5-5--5-5-5--5-5---------|

A#|------------------------------------------------------------------------------------|
G#|------------------------------------------------------------------------------------|
D#|---------------12--12--1111-1111---------------------------------------/15--14--10--|
A#|--0--0-0--0-0---x--x---x-x--x-x---7--7-7--7-10-10-10-10--3--3-3--3-3---/-x--x---x---|
F |--0--0-0--0-0--10--10--9-9--9-9---7--7-7--7-7--7--7--7---3--3-3--3-3---/13--12--8---|
A#|--0--0-0--0-0---------------------7--7-7--7-7--7--7--7---3--3-3--3-3----------------|

A#|-------------------------------------|
G#|-------------------------------------|
D#|-------------------------------------|
A#|--5--5-5--7--7-7--8-8-8--7-7---------|
F |--5--5-5--5--5-5--5-5-5--5-5---------|
A#|--5--5-5--5--5-5--5-5-5--5-5---------|

A#|------------------------------------------------------------------------------------|
G#|------------------------------------------------------------------------------------|
D#|---------------12--12--1111-1111---------------------------------------/15--14--10--|
A#|--0--0-0--0-0---x--x---x-x--x-x---7--7-7--7-10-10-10-10--3--3-3--3-3---/-x--x---x---|
F |--0--0-0--0-0--10--10--9-9--9-9---7--7-7--7-7--7--7--7---3--3-3--3-3---/13--12--8---|
A#|--0--0-0--0-0---------------------7--7-7--7-7--7--7--7---3--3-3--3-3----------------|

A#|-------------------------------------|
G#|-------------------------------------|
D#|-------------------------------------|
A#|--5--5-5--7--7-7--8-8-8--7-7---------|
F |--5--5-5--5--5-5--5-5-5--5-5---------|
A#|--5--5-5--5--5-5--5-5-5--5-5---------|
______________________________________________________________________________________________________________
Outro:

"Will it heal in time..."

A#|--------------------------00000000000-00000000000---------------------------00000000000-00000000000-|
G#|--------------------------00000000000-00000000000---------------------------00000000000-00000000000-|
D#|----------5---------------55555555555-88888888888-----------5---------------55555555555-88888888888-|
A#|-3-000000-5-0000000-3-00--55555555555-88888888888--3-000000-5-0000000-3-00--55555555555-88888888888-|
F |-3-000000-3-0000000-3-00--33333333333-66666666666--3-000000-3-0000000-3-00--33333333333-66666666666-|
A#|-3-000000---0000000-3-00---------------------------3-000000---0000000-3-00--------------------------|

A#|--------------------------00000000000-00000000000-|
G#|--------------------------00000000000-00000000000-|
D#|----------5---------------55555555555-88888888888-|
A#|-3-000000-5-0000000-3-00--55555555555-88888888888-|
F |-3-000000-3-0000000-3-00--33333333333-66666666666-|
A#|-3-000000---0000000-3-00--------------------------|

Finish with:

A#|---------------------|
G#|---------------------|
D#|--------5------------|
A#|-3-0--0-5-0--0-0-3-0-|
F |-3-0--0-3-0--0-0-3-0-|
A#|-3-0--0---0--0-0-3-0-|

*let the final note to fade, till the songs finally ends.
and thats all the song

(Again, listen to the song if you are lost)

LYRICS:

There's something every day that keeps on pulling at me.
Mental pictures of a firing line
You put me in that place with no one there to get me out.
Missing chances just to speak my mind.

[Prechorus]
My oh my, it's so hard to pass by

[Chorus:]
This time
I'm all right but something is broken.
But, will it heal in time?
It's all right. Some words that were spoken leave a mark and change your mind.

It's not too hard to see you left this inside me.
This new emotion that I didn't know I needed.
Thank you for teaching me that I could never trust you.
The day will come when I can ask you why.

[Prechorus]

[Chorus:]

            
            
Suggest correction
Creating personal tab
Creating personal tab
You can edit any tab online and save it as your Personal.

You can edit, replace or remove any tab part or add personal notes – all changes will be seen only by you.

Personal tabs can be accessed anytime from any device, even offline.
Learn more »
Give kudos to tab author, rate the tab!
1 2 3 4 5
comments
print report bad tab
guest
You may want to rate the tab now too:
select rating
Wanna post a correction for this tab? Suggest correction