Oops, an error
Loading. Please wait.

Liquid Reign Tab

139 views 6 this week
no commentswrite comment
1 2 3 4 5
2 more votes to show rating
add to favorites
launch autoscroll
font size
0
reset
how to read this tab
guitar tuner
Autoscroll
slow
fast
+/-
esc
set tempo
stop
Help us to improve Ultimate-Guitar.com Take our survey!
×
Author
Difficulty
intermediate
About this tab version
No other tabs for this song currently available. Was this info helpful? Yes No
[Intro][first guitar]

e|---------------------------------------------------------------------------|
B|---------------------------------------------------------------------------|
G|---------------------------------------------------------------------------|
D|---------------------------------------------------------------------------|
A|---------------------------------------------------------------------------|
E|-1h4-1h4-1h4-1h4-6---6-6-8-9-11-9-8-6-1h4-1h4-1---1h4-1--------------------|

e|-------------------------------------------------| (this repeats with a little
B|-------------------------------------------------|  variation till the end, listen
G|-------------------------------------------------|  to the track and it's very
D|-------------------------------------------------|  obvious)
A|-------------------------------------------------|
E|-1h4-6---6-6-9-11-9-8-6-1h4-1h4-1---1h4-1--------|(This continues while the second
                                                                               guitar plays)


[second guitar](0:37)

e|---------------------------------------------------------------------------|
B|-14---13----------------14---13--------------------------------------------|
G|-15---14---11---10------15---14---13--10-----------------------------------|(X2)
D|-15---14---11---10------15---14--------------------------------------------|
A|---------------------------------------------------------------------------|
E|---------------------------------------------------------------------------|

[second guitar](1:16)
e|-----------------------------------------------------------------------------------13----------------------|
B|-6-4-----------------------------------13-9-11-9-------------------13-9--------------11-9-11b12-12b11-9----|
G|---------------------------------8-10-----------10-8-10------8-10--------10---8-10-----------------------10|
D|6-----8-10-8-6-8-10-8-6------8-10-------------------------8-10--------------10-----------------------------|
A|------------------------6-8--------------------------------------------------------------------------------|
E|-----------------------------------------------------------------------------------------------------------|

e|---------------------------------------------------------------------------|
B|-14---13----------------14---13--------------------------------------------|
G|-15---14---11---10------15---14---13--10-----------------------------------|(X2)
D|-15---14---11---10------15---14--------------------------------------------|
A|---------------------------------------------------------------------------|
E|---------------------------------------------------------------------------|

[first guitar](1:34)
e|----------------------------------------------------------------------------------------------------------|
B|----------------------------------------------------------------------------------------------------------|
G|----------------------------------------------------------------------------------------------------------|
D|----------------------------------------------------------------------------------------------------------|
A|----------------------------------------------------------------------------------------------------------|
E|-1-4-1-4-1-4-1-4-1-4-6--6-6-8-9-11-9-8-6-1-4-1-4-1-4-6--6-6-8-9-11-9-8-6-1-4-1-4--------------------------|

[second guitar](1:57)

e|-------------------------------------------------------------------------------------------------|
B|-------------------------------------------------------------------------------------------------|
G|-------------------------------------------------------------------------------------------------|
D|-------------------------------15-17-15-13-15-13-------------------------------------------------|
A|-3-5- 6-8-10-13-15-15-15-17-13-------------------15-13-15-----3-5-6-8-10-8-6-8-10-13-15-17-15-13-|
E|-------------------------------------------------------------------------------------------------|

e|-----------------------------------------------------------------------------------13----------------------|
B|-6-4-----------------------------------13-9-11-9-------------------13-9--------------11-9-11b12-12b11-9----|
G|---------------------------------8-10-----------10-8-10------8-10--------10---8-10---------------------10--|
D|6-----8-10-8-6-8-10-8-6------8-10-------------------------8-10--------------10-----------------------------|
A|------------------------6-8--------------------------------------------------------------------------------|
E|-----------------------------------------------------------------------------------------------------------|

[outro] [first guitar]
e|---------------------------------------------------------------------------|
B|---------------------------------------------------------------------------|
G|---------------------------------------------------------------------------|
D|---------------------------------------------------------------------------|
A|---------------------------------------------------------------------------|
E|-1h4-1h4-1h4-1h4-6---6-6-8-9-11-9-8-6-1h4-1h4-1---1h4-1--1h4--1h4-1h4------|


************************************

| h  Hammer-on
| b  Bend   

************************************
Suggest correction
Give kudos to tab author, rate the tab!
1 2 3 4 5
comments
print report bad tab
guest
You may want to rate the tab now too:
select rating
Wanna post a correction for this tab? Suggest correction