Oops, an error
Loading. Please wait.

Insanitys Crescendo Tab

version 1
version 1

Whole song

Interactive

12,820 views 30 this week
no commentswrite comment
1 2 3 4 5
x 4
add to favorites
launch autoscroll
font size
0
reset
how to read this tab
guitar tuner
×
Best way to learn
"Insanitys Crescendo"
Autoscroll
slow
fast
+/-
esc
set tempo
stop
Tune to C#

[Riff A]
(Play A Total Of 1 Time)
(Gtr 1, 2)
e|----------------------0-----0--------------|
B|-----------0------------6-----6---6--------|
G|------2-/5---5---5-------------------------|
D|----2----------7----0-----7-----7----------| 
A|--0----------------------------------------|
E|-------------------------------------------|

(Gtr 1, 2)
e|----------------------0----------h--0------|
B|-----------0------------1-----0-0-3--------|
G|------2-/5---5---5-------------------------|
D|----2----------7----------0----------------|
A|--0-----------------3-------2--------------|
E|-------------------------------------------|

(Gtr 1, 2)
e|----------------------0-----0--------------|
B|-----------0------------6-----6---6--------|
G|------2-/5---5---5-------------------------|
D|----2----------7----0-----7-----7----------|
A|--0----------------------------------------|
E|-------------------------------------------|

(Gtr 1)
e|----------------------0----------h--0------|
B|-----------0------------1-----0-0-3--------|
G|------2-/5---5---5-------------------------
D|----2----------7----------0----------------| 
A|--0-----------------3-------------------0--|
E|----------------------------0--------------|
       
(Gtr 2)                                   
e|----------------------0----------h--0------|
B|-----------0------------1-----0-0-3--------|
G|------2-/5---5---5-------------------------|
D|----2----------7----------0-------------2--|
A|--0-----------------3-------------------0--|
E|----------------------------0--------------|

[Riff B] 
(Play A Total Of 1 Time)
(Gtr 1, 2)
e|-------------------------------------0-----------|
B|--1------3-1-0-1----------1----3-1-3-------0--0--|
G|---------------------2--2------------------------|
D|-------2-----------2-----------------------------|
A|----0------------0------------0-----------2------|
E|----------------------------1-----------0--------|

(Gtr 1, 2)
e|-------------------------------------0-----------|
B|--1------3-1-0-1----------1----3-1-3-------0-----|
G|---------------------2--2------------------------|
D|-------2-----------2-----------------------------|
A|----0------------0------------0-----------2------|
E|----------------------------1-----------0--------|

[Riff C] 
(Play A Total Of 2 Times)
(Gtr 1, 2)
e|--0-----1--0----0-------------------------------------|
B|--------------3-------0--1--3-----1-0--------------1--|
G|--------------------------------------0--2-----2-4----|
D|------2-------------------------0---------------------|
A|----0---------------2------------------------0--------|
E|------------------0-----------3------------1----------|

[Riff D.1] 
(Play A Total Of 3 Times)
(Gtr 1, 2)
e|--------8-----------7-----------5-----------5-7-8--|
B|------5---5-------5---5-------5---5-------5--------|
G|:---5-------5---5-------5---5-------5---5----------|
D|:--------------------------------------------------| 
A|---------------------------------------------------|
E|--5-----------5-----------5-----------5------------|

(Gtr 1, 2)                                                   
e|--------3-----------1-----------0-----------0------|
B|------3---3-------1---1-------1---1-------1---1----|
G|----------------2-------2---2-------2---2-------2-:|
D|----5-------5-------------------------------------:| 
A|--------------------------0-----------0------------|
E|--3-----------1------------------------------------|

[Riff D.2] 
(Play A Total Of 1 Time)
(Gtr 1, 2)
e|--------8-----------7-----------5-----------5-7-8--|
B|------5---5-------5---5-------5---5-------5--------|
G|:---5-------5---5-------5---5-------5---5----------|
D|:--------------------------------------------------|
A|---------------------------------------------------|
E|--5-----------5-----------5-----------5------------|

(Gtr 1, 2)                                                   
e|--------3-----------1-----------0-----(0)----------|
B|------3---3-------1---1-------1---1----1-----------|
G|----------------2-------2---2-------2--2----------:|
D|----5-------5--------------------------2----------:|
A|--------------------------0------------0-----------|
E|--3-----------1------------------------------------|


Play Riff B (Play A Total Of 1 Time)
Play Riff C (Play A Total Of 2 Times)

[Riff E] 
(Play 1 Time Acoustic)  
(Gtr 1, 2)
e|--------------------0----------------------------0--|
B|--------0-----------------------0--------------0----|
G|------5---5-------5---5-------5---5-------7---------|
D|----7-------7---7-------7---7-------7---7-----------| 
A|--0-----------8-----------7-----------8------7------|
E|----------------------------------------------------|

[Riff F] 
(All Gtrs Are Electric Now) (Play A Total Of 1 Time)
(Gtr 1, 2)
e|--------------------0----------------------------0--|
B|--------0-----------------------0--------------0----|
G|------5---5-------5---5-------5---5-------7---------|
D|----7-------7---7-------7---7-------7---7-----------| 
A|--0-----------8-----------7-----------8------7------|
E|----------------------------------------------------|

(Gtr 3, 4)
e|----------------------------------------------------|
B|----------------------------------------------------|
G|--2----------(2)---------(2)---------(2)------------|
D|--2----------(2)---------(2)---------(2)------------|
A|--0----------(0)---------(0)---------(0)------------| 
E|----------------------------------------------------|

(Gtr 1, 2)
e|--------------------0----------------------------0--|
B|--------0-----------------------0--------------0----|
G|------5---5-------5---5-------5---5-------7---------|
D|----7-------7---7-------7---7-------7---7-----------|
A|--0-----------8-----------7-----------8------7------|
E|----------------------------------------------------|

(Gtr 3, 4)                                                    
e|----------------------------------------------------|
B|----------------------------------------------------|
G|-(2)---------(2)---------(2)---------(2)------------|
D|-(2)---------(2)---------(2)---------(2)------------| 
A|-(0)---------(0)---------(0)---------(0)------------|
E|----------------------------------------------------|

(Gtr 1, 2)
e|--------------------0----------------------------0--|
B|--------0-----------------------0--------------0----|
G|------5---5-------5---5-------5---5-------7---------|
D|----7-------7---7-------7---7-------7---7-----------| 
A|--0-----------8-----------7-----------8------7------|
E|----------------------------------------------------|

(Gtr 3, 4)                                                   
e|----------------------------------------------------|
B|----------------------------------------------------|
G|--2-2-2-2-----------------2-2-2-2-------------------|
D|--2-2-2-2-----------------2-2-2-2-------------------| 
A|--0-0-0-0-----------------0-0-0-0-------------------|
E|----------------------------------------------------|

(Gtr 1, 2)
e|--------------------0----------------------------0--|
B|--------0-----------------------0--------------0----|
G|------5---5-------5---5-------5---5-------7---------|
D|----7-------7---7-------7---7-------7---7-----------|
A|--0-----------8-----------7-----------8------7------|
E|----------------------------------------------------|

(Gtr 2)                                                  
e|----------------------------------------------------|
B|----------------------------------------------------|
G|--2-2-2-2-----------------2-2-2-2-----7----9--------|
D|--2-2-2-2-----------------2-2-2-2-----7----9--------|
A|--0-0-0-0-----------------0-0-0-0-00005555577777----|
E|----------------------------------....-....-....----|

(Gtr 4)                                                    
e|----------------------------------------------------|
B|----------------------------------------------------|
G|--2-2-2-2-----------------2-2-2-2-----7----9--------|
D|--2-2-2-2-----------------2-2-2-2-----7----9--------|    
A|--0-0-0-0-----------------0-0-0-000000555557777~----|
E|---------------------------------.....-....-..------|

[Riff G]
(Gtr 3, 4)
e|----------------------------------------------------|
B|----------------------------------------------------|
G|--2-----2-----2-----2-------------------------------|
D|--2-----2-----2-----2-----3-----3-----2-----2-------|
A|--0-000-0-000-0-000-0-000-3-----3-----2-----2-------|
E|----...---...---...---...-1-111-1-111-0-000-0-000---|
                              ...   ...   ...   ...

(Gtr 2)
e|----------------------------------------------------|
B|----------------------------------------------------|
G|--2-----2-----2-----2-------------------------------|
D|--2-----2-----2-----2-----3-----3-----2-----*-------|
A|--0-000-0-000-0-000-0-000-3-----3-----2-----3~------|
E|----...---...---...---...-1-111-1-111-0-000---------|
                              ...   ...   ...         
  
(Gtr 4)                                                  
e|----------------------------------------------------|
B|----------------------------------------------------|       
G|--2-----2-----2-----2-------------------------------|
D|--2-----2-----2-----2-----3-----3-----2-------------|
A|--0-000-0-000-0-000-0-000-3-----3-----2-----3~------|
E|----...---...---...---...-1-111-1-111-0-000---------|
                              ...   ...   ...      

(Gtr 3, 4)
e|----------------------------------------------------|
B|----------------------------------------------------|
G|--2-----2-------------------------------------------|
D|--2-----2-----2-----2-----5-----5-----3-------------| 
A|--0-000-0-000-2-----2-----5-----5-----3-----3-5-3---|
E|----...---...-0-000-0-000-3-333-3-333-1-111-1-3-1---|
                  ...   ...   ...   ...   ... . . .

(Gtr 3, 4)
e|----------------------------------------------------|
B|----------------------------------------------------|
G|--2-----2-------------------------------------------|
D|--2-----2-----2-----2-----5-----5-----3-------------| 
A|--0-000-0-000-2-----2-----5-----5-----3-----3-5-3---|
E|----...---...-0-000-0-000-3-333-3-333-1-111-1-3-1---|
                 ...   ...   ...   ...   ... . . .

[Riff H] 
(Play A Total Of 1 Time)
(Gtr 3)
e|----------------------------------------------------|
B|--------------------------------------h-------------|
G|--5--5-7-5-4-5----------------7----7-7-9~-----------|
D|---------------7-7~--7-/10-10---10------------------| 
A|----------------------------------------------------|
E|----------------------------------------------------|
                                              
(Gtr 4)
e|----------------------------------------------------|
B|----------------------------------------------------|
G|--2-------------------------------------------------|
D|--2----------------------3-------------2------------|
A|--0----------------------3-------------2------------|
E|-------------------------1-------------0------------|

(Gtr 3)
e|------------------------------------*=artificial----|
B|---------------------------------------harmonic-----|
G|-9999-9-10-9-7-9--------7-7---------*---------------|
D|-----------------9-9-10-----10-9----7fb+r+b+r~------| 
A|---------------------------------10-----------------|
E|----------------------------------------------------|

(Gtr 4)
e|----------------------------------------------------|
B|----------------------------------------------------|
G|-2--------------------------------------------------|
D|-2-------------2--------5-----------3----3-333------| 
A|-0-------------2--------5-----------3----3-333------|
E|---------------0--------3-----------1----1-111------|
                                           . ...

(Gtr 2)
e|-----------------------------------------------------------|
B|-----------------------------------------------------------|   
G|-------------------------------------h--p------------------|
D|-7-/14-14-15-14-15-17\12-12--9--9-9-9-10-9-----------------|
A|-------------------------------------------10-12-(12)fb+r~~|
E|-----------------------------------------------------------|

(Gtr 4)                                                          
e|-----------------------------------------------------------|
B|-----------------------------------------------------------|
G|-----5-----------------------------------------------------|
D|-----5--------------5--------4-----------------2-----------|
A|-----3--------------2--------2-----------------0-----------|
E|-----------------------------------------------------------|

[Riff 1] 
(Play A Total Of 1 Time)
(Gtr 3)
e|--------------0-----------------------0-------------|
B|--------1-----------------------1-------------------|
G|--2-----------------------2-------------------------|
D|----------------------------------------------------| 
A|----000---000---000-0-000---------------------------|
E|----...---...---...-.-...---111---111---000-0-1-0---|
                              ...   ...   ... . . .   

(Gtr 4)                                                   
e|----------------------------------------------------|
B|----------------------------------------------------|
G|--2-----2-----2-----2-------------------------------|
D|--2-----2-----2-----2-----3-----3-----2-------------|
A|--0-000-0-000-0-000-0-000-3-----3-----2-----2-3-2---|
E|----...---...---...---...-1-111-1-111-0-000-0-1-0---|
                              ...   ...   ... . . .

(Gtr 3)
e|--------------0-----------------------0-------------|
B|--------1-----------------------1-------*artificial-|
G|--2-----------------------2---------------harmonic--|
D|-------------------------------------------***------| 
A|----000---000---000-0-000------------------*3*------|
E|----...---...---...-.-...---111---111---000---------|
                              ...   ...   ...         
      
(Gtr 4)                                       
e|----------------------------------------------------|
B|----------------------------------------------------|
G|--2-----2-----2-----2-------------------------------|
D|--2-----2-----2-----2-----3-----3-----2-------------| 
A|--0-000-0-000-0-000-0-000-3-----3-----2-----3~------|
E|----...---...---...---...-1-111-1-111-0-000---------|
                              ...   ...   ...      

(Gtr 3)
e|--------0-----3-----------------------------------|
B|--------------------------------------------------|
G|--2--------------------------------24-5-----2-4-2-|
D|--2-----------------2-----5-----5-----------------| 
A|--0-000---000-------2-----5-----5-----------------|
E|----...---...---000-0-000-3-333-3-------111-------|
                  ...   ...   ...         ...       

(Gtr 4)                                               
e|--------------------------------------------------|
B|--------------------------------------------------|
G|--2-----2-----------------------------------------|
D|--2-----2-----2-----2-----5-----5-----3-----------|
A|--0-000-0-000-2-----2-----5-----5-----3-----3-5-3-|
E|----...---...-0-000-0-000-3-333-3-333-1-111-1-3-1-|
                  ...   ...   ...   ...   ... . . .  

(Gtr 3)
e|--------0-----3-----------------3-----------------|
B|--1-----------------------0---------0--1----------|
G|--------------------------------------------2-4-2-|
D|--------------------------------------------------| 
A|----000---000-------------------------------------|
E|----...---...---000-0-000---333-------------------|
                  ... . ...   ...                   

(Gtr 4)                                                
e|--------------------------------------------------|
B|--------------------------------------------------|
G|--2-----2-----------------------------------------|
D|--2-----2-----2-----2-----5-----5-----3-----------|
A|--0-000-0-000-2-----2-----5-----5-----3-----3-5-3-|
E|----...---...-0-000-0-000-3-333-3-333-1-111-1-3-1-|
                  ...   ...   ...   ...   ... . . .  

[Riff J]
(Gtr 3)
e|----------------------------------------------------|
B|----------------------------------------------------|
G|-------------------------------2--------------------|
D|---------------------3---------0--2-----2--0--3--2--|
A|--0----0--3--5----5-----0---0-----------------------|
E|----------------------------------------------------|

(Gtr 4)
e|--5-------------------------------------------------|
B|--5-------------------------------------*trill-notes|
G|--5------------------------------------------**-----|
D|--7---------------------2--------------------87-----| 
A|--7----------5----------0---------2-----2--5-----7--|
E|--5-------------------------------0-----0--3-----5--|

(Gtr 3)
e|---------------------------------*=artficial harmonics------|
B|-------------------------------------------*----*---3-------|
G|-----0--2----2-------2---------------2--4--4--5-4------5----|
D|--2---------------------3--2------2----------------------2--| 
A|------------------------------------------------------------|
E|------------------------------------------------------------|

[Riff K] 
(Play A Total Of 1 Time)
(Gtr 3)
e|------------------------------------|
B|------------------------------------|
G|-----------------------------0-2----|
D|-----------------2-0-------------3--|
A|-0-----------0-3--------------------|
E|------------------------------------|

(Gtr 4)
e|---------------------0-----0-----0--|
B|-----------0-----------6-----6------|
G|------2-/5---5---5------------------|
D|----2----------7---0-----7-----7----|
A|--0---------------------------------|
E|------------------------------------|

(Gtr 3)
e|--------------------------------------|
B|--------------------------------------|  
G|-------------2-2-245-----5-4~----3----|
D|\2------------------------------------|
A|--------------------------------------|
E|--------------------------------------|

(Gtr 4)
e|---------------------0----------h--0--|
B|-----------0-----------1-----0-0-3----|
G|------2-/5---5---5--------------------| 
D|----2----------7---------0------------|
A|--0----------------3------(2)---------|
E|---------------------------0----------|

(Gtr 3)
e|----------------------------3---------|
B|-5~----------5-6-5--3~--6~----6-5-3---|
G|--------------------------------------|
D|--------------------------------------|
A|--------------------------------------|
E|--------------------------------------|

(Gtr 4)
e|----------------------0-----0-----0---|
B|-----------0------------6-----6-------|
G|------2-/5---5---5--------------------|
D|----2----------7----0-----7-----7-----|
A|--0-----------------------------------|
E|--------------------------------------|

(Gtr 3)
e|-------------------------------------------|
B|-/5------------5-5-35-------1-0------------|
G|------5~------------------------2----------|
D|----------------------------------2--------|
A|------------------------------------3-2----|
E|-------------------------------------------|

(Gtr 4)
e|----------------------0--------------------|
B|-----------0------------1-1----------------|
G|------2-/5---5---5-------------------------|
D|----2----------7---------------------------|
A|--0-----------------3----------------------|
E|-------------------------------------------|

[Riff L] 
(Play A Total Of 1 Time)
(Gtr 3)
e|---------------------------------------------------|
B|---------------------------------------------------|
G|---------------------------------------------------|
D|--------------------------------------------2-4-5--|
A|--0----------(0)---------(0)----------------0-2-3--|
E|---------------------------------------------------|

(Gtr 4)
e|--------8-----------7-----------5-----------5-7-8--|
B|------5---5-------5---5-------5---5-------5--------|
G|:---5-------5---5-------5---5-------5---5----------|
D|:--------------------------------------------------| 
A|---------------------------------------------------|
E|--5-----------5-----------5-----------5------------|

(Gtr 3)
e|---------------------------------------------------|
B|---------------------------------------------------|
G|---------------------------------------------------|
D|---------------------------------------------------|
A|--5-----5-----3----/8-7-7-7-----------------2-2-2--|
E|--3-----3-----1-------5-5-5-----------------0-0-0--|

(Gtr 1, 2)
e|--------3-----------1-----------0-----(0)----------|
B|------3---3-------1---1-------1---1----1-----------|
G|----------------2-------2---2-------2--2----------:|
D|----5-------5--------------------------2----------:| 
A|--------------------------0------------0-----------|
E|--3-----------1------------------------------------|

(Gtr 3)
e|--------------------5-5-5-5-5-5-5-5-5-5-5-5--------|
B|--------------------5-5-5-5-5-5-5-5-5-5-5-5--------|
G|--------------------5-5-5-5-5-5-5-5-5-5-5-5--------|
D|--------------------------------------------2-4-5--|
A|--7-----------------------------------------0-2-3--|
E|--5------------------------------------------------|

(Gtr 4)
e|--------8-----------7-----------5-----------5-7-8--|
B|------5---5-------5---5-------5---5-------5--------|
G|:---5-------5---5-------5---5-------5---5----------|
D|:--------------------------------------------------| 
A|---------------------------------------------------|
E|--5-----------5-----------5-----------5------------|

(Gtr 3)
e|---------------------------------------------------|
B|---------------------------------------------------|
G|---------------------------------------------------|
D|-------------------------------------------5-7-5---|
A|--5-----------3-----7-7-7---------7-7-7------------|
E|--3-----------1-----5-5-5---------5-5-5------------|

(Gtr 1, 2)
e|--------3-----------1-----------0----(0)-----------|
B|------3---3-------1---1-------1---1---1------------|
G|----------------2-------2---2-------2-2-----------:|
D|----5-------5-------------------------2-----------:| 
A|--------------------------0-----------0------------|
E|--3-----------1------------------------------------|

(Gtr 3)                                        
e|----------5-5-5-------5-5-5-5-5-5-5-5-5------------|
B|----------5-5-5-------5-5-5-5-5-5-5-5-5------------|
G|----------5-5-5-------5-5-5-5-5-5-5-5-5------------|
D|--7-------------------------------------------4-5--|
A|--7-----------------------------------------7------|
E|--5-----------------------------------------5------|

(Gtr 4)
e|--------8-----------7-----------5-----------5-7-8--|
B|------5---5-------5---5-------5---5-------5--------|
G|:---5-------5---5-------5---5-------5---5----------|
D|:--------------------------------------------------| 
A|---------------------------------------------------|
E|--5-----------5-----------5-----------5------------|

[Riff M] 
(Play A Total Of 1 Time) 
(Gtr 3, 4)
e|------------------------------------------------------------|
B|------------------------------------------------------------|
G|------------------------------------------------------------| 
D|-----------------------------2------2------7------9---------|
A|-5------5------3------3------0-0000-0-0000-5-5555-7-7777----|
E|-3-3333-3-3333-1-1111-1-1111--------------------------------|

(Gtr 3, 4)
e|----------------------------------------------------|
B|----------------------------------------------------|
G|--2-2-2-2----(2)---------(2)---------(2)------------|
D|--2-2-2-2----(2)---------(2)---------(2)------------|  
A|--0-0-0-0----(0)---------(0)---------(0)------------|
E|----------------------------------------------------|

(Gtr 1, 2)
e|--------------------0----------------------------0--|
B|--------0-----------------------0--------------0----|
G|------5---5-------5---5-------5---5-------7---------|
D|----7-------7---7-------7---7-------7---7-----------| 
A|--0-----------8-----------7-----------8------7------|
E|----------------------------------------------------|

(Gtr 3, 4)
e|----------------------------------------------------|
B|----------------------------------------------------|
G|-(2)---------(2)---------(2)---------(2)------------|
D|-(2)---------(2)---------(2)---------(2)------------|  
A|-(0)---------(0)---------(0)---------(0)------------|
E|----------------------------------------------------|

(Gtr 1, 2)
e|--------------------0----------------------------0--|
B|--------0-----------------------0--------------0----|
G|------5---5-------5---5-------5---5-------7---------|
D|----7-------7---7-------7---7-------7---7-----------| 
A|--0-----------8-----------7-----------8------7------|
E|----------------------------------------------------|

(Gtr 3, 4)
e|----------------------------------------------------|
B|----------------------------------------------------|
G|--2---2-2-2---------------------------2---2---------|
D|--2---2-2-2---3-333-/5\---2---------2-3---3--2-2-2--| 
A|--0---0-0-0---3-333-/5\---2---------2-3---3--2-2-2--|
E|--------------1-111-/3\---------------1---1---------|

(Gtr 1, 2)
e|--------------------0----------------------------0--|
B|--------0-----------------------0--------------0----|
G|------5---5-------5---5-------5---5-------7---------|
D|----7-------7---7-------7---7-------7---7-----------| 
A|--0-----------8-----------7-----------8------7------|
E|----------------------------------------------------|

(Gtr 3, 4)
e|----------------------------------------------------|
B|----------------------------------------------------|
G|--2----(2)----------------------------2---2---------|
D|--2----(2)----3-----/5\---2---------2-3---3--2-2-2--|  
A|--0----(0)----3-----/5\---2---------2-3---3--2-2-2--|
E|--------------1-----/3\---------------1---1---------|

(Gtr 1, 2)
e|--------------------0----------------------------0--|
B|--------0-----------------------0--------------0----|
G|------5---5-------5---5-------5---5-------7---------| 
D|----7-------7---7-------7---7-------7---7-----------| 
A|--0-----------8-----------7-----------8------7------|
E|----------------------------------------------------|

[Riff N] 
(Play A Total Of 1 Time)
(Gtr 3, 4)
e|-------------------------------------------------|
B|-------------------------------------------------|
G|--2----------------------------------------------|
D|--2-----------------------3----------2-----------| 
A|--0-----------------------3----------2-----------|
E|--------------------------1----------0-----------|

(Gtr 1, 2)
e|-------------------------------------0-----------|
B|--1------3-1-0-1----------1----3-1-3-------0--0--|
G|---------------------2--2------------------------| 
D|-------------------------------------------------| 
A|-------------------------------------------------|
E|-------------------------------------------------|

(Gtr 3, 4)
e|-------------------------------------------------|
B|-------------------------------------------------|
G|--2----------------------------------------4*----|
D|--2-----------------------3----------2-----------|  
A|--0-----------------------3----------2-----------|
E|--------------------------1----------0-----------|

(Gtr 1, 2)
e|-------------------------------------0-----------|
B|--1------3-1-0-1----------1----3-1-3-------0-----|
G|---------------------2--2------------------------|
D|-------------------------------------------------|
A|-------------------------------------------------|
E|-------------------------------------------------|

[Riff O] (Play A Total Of 1 Time)
e|------------------------------------------------------|
B|------------------------------------------------------|
G|--2---------------------------------------------------|
D|--2-------------2-----------5------------3-----3-3-3--|
A|--0-------------2-----------5------------3-----3-3-3--|
E|----------------0-----------3------------1-----1-1-1--|
                                                 . . .  

(Gtr 1, 2)
e|--0-----1--0----0-------------------------------------|
B|--------------3-------0--1--3-----1-0--------------1--|
G|--------------------------------------0--2-----2-4----|
D|------------------------------------------------------|
A|------------------------------------------------------|
E|------------------------------------------------------|

e|------------------------------------------------------|
B|------------------------------------------------------|
G|--2---------------------------------------------------|
D|--2-------------2-------------------------------------|
A|--0-------------2----------5-----5-----3-----3-5-3----|
E|----------------0----------3-333-3-333-1-111-1-3-1----|
                               ...   ...   ...          

(Gtr 1, 2)
e|--0-----1--0----0----------*--------------------------|
B|--------------3-------0--fb6---(6)+r~~-6-----6-5-6----|
G|------------------------------------------------------|
D|------------------------------------------------------| 
A|------------------------------------------------------|
E|------------------------------------------------------|

[Riff P]
(Gtr 3, 4)
e|------------------------------------------------------------|
B|------------------------------------------------------------|
G|------------------------------------------------------------|
D|-----------------------------2------2------7------9---------|
A|-5------5------3------3------0-0000-0-0000-5-5555-7-7777----|
E|-3-3333-3-3333-1-1111-1-1111--------------------------------|

(Gtr 3)
e|----------------------------------------------------|
B|--------------------------------------h-------------|
G|--5--5-7-5-4-5----------------7----7-7-9~-----------|
D|---------------7-7~--7-/10-10---10------------------| 
A|----------------------------------------------------|
E|----------------------------------------------------|

(Gtr 4)
e|----------------------------------------------------|
B|----------------------------------------------------|
G|--2-------------------------------------------------|
D|--2----------------------3-------------2------------| 
A|--0----------------------3-------------2------------|
E|-------------------------1-------------0------------|

(Gtr 3)
e|------------------------------------*=artificial----|
B|---------------------------------------harmonic-----|
G|-9999-9-10-9-7-9--------7-7---------*---------------|
D|-----------------9-9-10-----10-9----7fb+r+b+r~------| 
A|---------------------------------10-----------------|
E|----------------------------------------------------|

 (Gtr 4)
e|----------------------------------------------------|
B|----------------------------------------------------|
G|-2-----2--------------------------------------------|
D|-2-----2-----2-----2-----5-----5-----3-----3--5--3--|
A|-0-000-0-000-2-----2-----5-----5-----3-----3--5--3--|
E|-------------0-000-0-000-3-333-3-333-1-111-1--3--1--|
     ...   ...   ...   ...   ...   ...   ... .  .  .              

(Gtr 2)
e|--------------------------------------------------|
B|--------------------------------------------------|   
G|--------------------------------------------------|
D|-7-/14-14-15-14-15-17\12-12-----9~---3-2-0-2-0----|
A|-----------------------------------------------2--|
E|--------------------------------------------------|
                                       . . . . . .  
                                                  
(Gtr 4)
e|--------------------------------------------------|
B|--------------------------------------------------|
G|-----5-----5--------------------9-----------------|    
D|-----5-----5-----55-----5-------9----3-2-0-2-0----| 
A|-----3-333-3-333-32-222-2-222---7--------------2--|
E|--------------------------------------------------|
                                       . . . . . .

(Gtr 3, 4)
e|----------|
B|----------|
G|-2-2-2-2--|
D|-2-2-2-2--|
A|-0-0-0-0--|
E|----------|


************************************

| /    Slide up
| h    Hammer-on
| (n)  Ghost note
| ~    Vibrato
| *    Natural harmonic
| .    Staccato
| p    Pull-off
| \    Slide down

************************************
Suggest correction
comments
print report bad tab
guest
You may want to rate the tab now too:
select rating
Wanna post a correction for this tab? Suggest correction