Oops, an error
Loading. Please wait.

Lethe Tab

version 2
version 2

Whole song

12,066 views 45 this week
no commentswrite comment
1 2 3 4 5
x 3
add to favorites
launch autoscroll
font size
0
reset
how to read this tab
guitar tuner
×
Best way to learn
"Lethe"
Autoscroll
slow
fast
+/-
esc
set tempo
stop
Author
Difficulty
Tuning
  follow
intermediate
D# G# C# F# A# D#
Tabbed by: Martijn Wietsma
Email: dalvanian@yahoo.com
Date: 25-9-2002
Tune down to D#

[Riff A]
D#|--------------------------------------------------------|
A#|-------------0------------------------------------------|
F#|-1--0--0---2---2-----2------2---------------------------|
C#|-2--2--0---------2-----2-------2------------------------|
G#|-2--2--2-----------------0--------0---------------------|
D#|--------------------------------------------------------|

D#|--------------------------------------------------------|
A#|--------------------------------------------------------|
F#|----------2---------------4-----------------------------|
C#|--------3---3----------5----5---------------------------|
G#|------3-------3------5--------5-------------------------|
D#|-0-1--------------/3------------------------------------|

D#|--------------------------------------------------------|
A#|---------1-------0--------------------------------------|
F#|-------2---2--------2-----2-----------------------------|
C#|----2--------2--------2-----2---------------------------|
G#|-0-----------------------------0------------------------|
D#|--------------------------------------------------------|

D#|--------------------------------------------------------|
A#|--------------------------------------------------------|
F#|----------2---------------4-----------------------------|
C#|--------3---3----------5----5---------------------------|
G#|------3-------3------5--------5-------------------------|
D#|-0-1--------------/3------------------------------------|

D#|--------------------------------------------------------|
A#|---------1-------0--------------------------------------|
F#|-------2---2--------2-----2-----------------------------|
C#|----2--------2--------2-----2---------------------------|
G#|-0-----------------------------0------------------------|
D#|--------------------------------------------------------|

[Riff B]
D#|--------------------------------------------------------|
A#|-1-1-0----0--0----------0-------------------------------|
F#|--------2------2-0-2--2---2------2----------------------|
C#|----------------------------2------2--------------------|
G#|------------------------------0------0------------------|
D#|--------------------------------------------------------|

D#|--------------------------------------------------------|
A#|-1-1-0----0--0----------0-------------------------------|
F#|--------2------2-0-2--2---2------2----------------------|
C#|----------------------------2------2--------------------|
G#|------------------------------0------0------------------|
D#|--------------------------------------------------------|

[Riff A]
D#|--------------------------------------------------------|
A#|--------------------------------------------------------|
F#|----------2---------------4-----------------------------|
C#|--------3---3----------5----5---------------------------|
G#|------3-------3------5--------5-------------------------|
D#|-0-1--------------/3------------------------------------|

D#|--------------------------------------------------------|
A#|---------1-------0--------------------------------------|
F#|-------2---2--------2-----2-----------------------------|
C#|----2--------2--------2-----2---------------------------|
G#|-0-----------------------------0------------------------|
D#|--------------------------------------------------------|

[Riff A[
D#|--------------------------------------------------------|
A#|-1-1-0----0--0----------0-------------------------------|
F#|--------2------2-0-2--2---2------2----------------------|
C#|----------------------------2------2--------------------|
G#|------------------------------0------0------------------|
D#|--------------------------------------------------------|

D#|--------------------------------------------------------|
A#|-1-1-0----0--0----------0-------------------------------|
F#|--------2------2-0-2--2---2------2----------------------|
C#|----------------------------2------2--------------------|
G#|------------------------------0------0------------------|
D#|--------------------------------------------------------|

[Riff C]
D#|--------------------------------------------------------|
A#|--------------------------------------------------------|
F#|--------------------------------------------------------|
C#|----2------2------2------2-0-2-3-----3------3-----3-2-0-|
G#|------0------0------0------------0-----0------0---------|
D#|-0------0------0------0------------1-----1------1-------|

D#|--------------------------------------------------------|
A#|--------------------------------------------------------|
F#|--------------------------------------------------------|
C#|-2------2------2--------2-0------------------------0----|
G#|---0------0-------0---------3-2------3-----2-----3------|
D#|-----0------0-------0------------0-0---0-0---0-0--------|

D#|--------------------------------------------------------|
A#|--------------------------------------------------------|
F#|--------------------------------------------------------|
C#|----2------2------2------2-0-2-3-----3------3-----3-2-0-|
G#|------0------0------0------------0-----0------0---------|
D#|--------0------0------0------------1-----1------1-------|

D#|--------------------------------------------------------|
A#|--------------------------------------------------------|
F#|--------------------------------------------------------|
C#|-2------2------2--------2-0-----------------------------|
G#|---0------0-------0---------3-2-------------------------|
D#|-----0------0-------0-----------------------------------|

[Riff D]
D#|--------------------------------------------------------|
A#|--------------------------------------------------------|
F#|--------------------------------------------------------|
C#|-4--------5--------5-4------5-------7-------------------|
G#|-2-2-2-2--3-3-3-3--3-2-2-2--3--3-3--5-------------------|
D#|--------------------------------------------------------|
    x x x    x x x      x x     x x

[Riff E]
D#|--------------------------------------------------------|
A#|--------------------------------------------------------|
F#|-/5--5-7-/10-9--9-7-9---9h10p9p7h9--9h10p9p7h9----------|
C#|--------------------------------------------------------|
G#|--------------------------------------------------------|
D#|--------------------------------------------------------|

D#|--------------------------------------------------------|
A#|--------------------------------------------------------|
F#|-/5--5-7-/10-9--9-7-9---9h10p9p7h9--9h10p9p7h9----------|
C#|--------------------------------------------------------|
G#|--------------------------------------------------------|
D#|--------------------------------------------------------|

[Riff F]
D#|--------------------------------------------------------|
A#|------------------------------------------------------5-|
F#|-5--5-5-5--4-2-4--4-4-4--2---2---2-2-2--4-2--------5----|
C#|---------------------------5----------------2--2-2------|
G#|--------------------------------------------------------|
D#|--------------------------------------------------------|

D#|--------------------------------------------------------|
A#|------------------------------------------------------5-|
F#|-5--5-5-5--4-2-4--4-4-4--2---2---2-2-2--4-2--------5----|
C#|---------------------------5----------------2--2-2------|
G#|--------------------------------------------------------|
D#|--------------------------------------------------------|

[Riff G]
D#|--------------------------------------------------------|
A#|--------------------------------------------------------|
F#|-9--9-9-9-7----9---9-7-9-10--10-9-7-10--10-9-7-9--------|
C#|------------10------------------------------------------|
G#|--------------------------------------------------------|
D#|--------------------------------------------------------|

D#|--------------------------------------------------------|
A#|--------------------------------------------------------|
F#|-9-7----9---9-7--------------7--------------------------|
C#|-----10---------10-9-10-9-10----------------------------|
G#|--------------------------------------------------------|
D#|--------------------------------------------------------|

D#|--------------------------------------------------------|
A#|--------------------------------------------------------|
F#|-9--9-9-9-7----9---9-7-9-10--10-9-7-10--10-9-7-9--------|
C#|------------10------------------------------------------|
G#|--------------------------------------------------------|
D#|--------------------------------------------------------|

D#|--------------------------------------------------------|
A#|--------------------------------------------------------|
F#|-9-7----9---9-7--------------7--------------------------|
C#|-----10---------10-9-10-9-10----------------------------|
G#|--------------------------------------------------------|
D#|--------------------------------------------------------|

[Riff H]
D#|--------------------------------------------------------|
A#|--------------------------------------------------------|
F#|--------------------------------------------------------|
C#|-9------------9--7----10-9--9-----------------9---------|
G#|-7-7-7-7-7-7--7----10-------7-7-7-7-7-7-7-7-7-7-9-10-9-7|
D#|--------------------------------------------------------|
    x x x x x                  x x x x x x x x

[Riff I]
D#|--------------------------------------------------------|
A#|--------------------------------------------------------|
F#|--------------------------------------------------------|
C#|-9-----------9--10-9-7--9-----------9--7-9-10-9---------|
G#|-7-7-7-7-7-7-7---8-7-5--7-7-7-7-7-7-7--5-7--8-7---------|
D#|--------------------------------------------------------|
    x x x x x              x x x x x

D#|--------------------------------------------------------|
A#|--------------------------------------------------------|
F#|--------------------------------------------------------|
C#|-9-----------9--10-9-7--9-----------9--7-9-10-9---------|
G#|-7-7-7-7-7-7-7---8-7-5--7-7-7-7-7-7-7--5-7--8-7---------|
D#|--------------------------------------------------------|
    x x x x x              x x x x x

[Riff J]
D#|--------------------------------------------------------|
A#|--------------------------------------------------------|
F#|--------------------------------------------------------|
C#|----2h3p2h-----0h---0h----------------------------------|
G#|-3---------3------3----2---0h2h3p2---2h3h5--------------|
D#|--------------------------------------------------------|

D#|--------------------------------------------------------|
A#|--------------------------------------------------------|
F#|--------------------------------------------------------|
C#|----2h3p2h-----0h---0h----------------------------------|
G#|-3---------3------3----2---0h2h3p2---2h3h5--------------|
D#|--------------------------------------------------------|

[Riff K](guitar 1)
D#|--------------------------------------------------------|
A#|--------------------------------------------------------|
F#|--------------------------------------------------------|
C#|---2-2-2-3p2h----2-2-2-2p0------------------------------|
G#|-3------------3------------3-2--2-2-2-2-3-2--2-2-2-3-5--|
D#|--------------------------------------------------------|

[Riff K](guitar 2)
D#|--------------------------------------------------------|
A#|--------------------------------------------------------|
F#|--------------------------7----7-9-10-------------------|
C#|----7--7-7-7--7--9--9-10----9---------------------------|
G#|-7---------------7----------7---------------------------|
D#|-5------------------------------------------------------|

[Riff K](guitar 1)
D#|--------------------------------------------------------|
A#|--------------------------------------------------------|
F#|--------------------------------------------------------|
C#|---2-2-2-3p2h----2-2-2-2p0------------------------------|
G#|-3------------3------------3-2--2-2-2-2-3-2--2-2-2-3-5--|
D#|--------------------------------------------------------|

[Riff K](guitar 2)
D#|--------------------------------------------------------|
A#|--------------------------------------------------------|
F#|--------------------------7----7-9-10-------------------|
C#|----7--7-7-7--7--9--9-10----9---------------------------|
G#|-7---------------7----------7---------------------------|
D#|-5------------------------------------------------------|

[Riff L](only chords)
D#|--------------------------------------------------------|
A#|--------------------------------------------------------|
F#|----------------------------5---------------------------|
C#|-------10-----7-------------3-----7---------------------|
G#|-7------8-----5-------7-----------5------5h7h8----------|
D#|-5--------------------5---------------------------------|

D#|--------------------------------------------------------|
A#|--------------------------------------------------------|
F#|----------------------------5---------------------------|
C#|-------10-----7-------------3-----7---------------------|
G#|-7------8-----5-------7-----------5------5h7h8----------|
D#|-5--------------------5---------------------------------|

[Riff M]
D#|-12-----------------------------------------------------|
A#|--------------------------------------------------------|
F#|----2----------------0----------------------------------|
C#|----2---------2----2----2-------------------------------|
G#|----0--0-0-0--3--3------2--2-2-3-2----------------------|
D#|------------------------0-------------------------------|
        x x x               x x x x                     (4x)

[Riff E]
D#|--------------------------------------------------------|
A#|--------------------------------------------------------|
F#|-/5--5-7-/10-9--9-7-9---9h10p9p7h9--9h10p9p7h9----------|
C#|--------------------------------------------------------|
G#|--------------------------------------------------------|
D#|--------------------------------------------------------|

D#|--------------------------------------------------------|
A#|--------------------------------------------------------|
F#|-/5--5-7-/10-9--9-7-9---9h10p9p7h9--9h10p9p7h9----------|
C#|--------------------------------------------------------|
G#|--------------------------------------------------------|
D#|--------------------------------------------------------|

[Riff N](guitar 1)
D#|--------------------------------------------------------|
A#|-----------------------------------5---5----------------|
F#|-5--5-4-2-4---4-2---2---2-4-2--------5------------------|
C#|------------------5-----------2-------------------------|
G#|--------------------------------------------------------|
D#|--------------------------------------------------------|

[Riff N](guitar 2)
D#|--------------------------------------------------------|
A#|--------------------------------------------------------|
F#|--------------4---------9-------------------------------|
C#|-2------------2---------7-----2-------------------------|
G#|-0----------------------------2-------------------------|
D#|------------------------------0-------------------------|

[Riff N](guitar 1)
D#|--------------------------------------------------------|
A#|-----------------------------------5---5----------------|
F#|-5--5-4-2-4---4-2---2---2-4-2--------5------------------|
C#|------------------5-----------2-------------------------|
G#|--------------------------------------------------------|
D#|--------------------------------------------------------|

[Riff N](guitar 2)
D#|--------------------------------------------------------|
A#|--------------------------------------------------------|
F#|--------------4---------9-------------------------------|
C#|-2------------2---------7-----2-------------------------|
G#|-0----------------------------2-------------------------|
D#|------------------------------0-------------------------|

[Riff G]
D#|--------------------------------------------------------|
A#|--------------------------------------------------------|
F#|-9--9-9-9-7----9---9-7-9-10--10-9-7-10--10-9-7-9--------|
C#|------------10------------------------------------------|
G#|--------------------------------------------------------|
D#|--------------------------------------------------------|

D#|--------------------------------------------------------|
A#|--------------------------------------------------------|
F#|-9-7----9---9-7--------------7--------------------------|
C#|-----10---------10-9-10-9-10----------------------------|
G#|--------------------------------------------------------|
D#|--------------------------------------------------------|

D#|--------------------------------------------------------|
A#|--------------------------------------------------------|
F#|-9--9-9-9-7----9---9-7-9-10--10-9-7-10--10-9-7-9--------|
C#|------------10------------------------------------------|
G#|--------------------------------------------------------|
D#|--------------------------------------------------------|

D#|--------------------------------------------------------|
A#|--------------------------------------------------------|
F#|-9-7----9---9-7--------------7--------------------------|
C#|-----10---------10-9-10-9-10----------------------------|
G#|--------------------------------------------------------|
D#|--------------------------------------------------------|

D#|--------------------------------------------------------|
A#|--------------------------------------------------------|
F#|-9--9-9-9-7----9---9-7-9-10--10-9-7-10--10-9-7-9--------|
C#|------------10------------------------------------------|
G#|--------------------------------------------------------|
D#|--------------------------------------------------------|

D#|--------------------------------------------------------|
A#|--------------------------------------------------------|
F#|-9-7----9---9-7--------------7--------------------------|
C#|-----10---------10-9-10-9-10----------------------------|
G#|--------------------------------------------------------|
D#|--------------------------------------------------------|

[Riff C](under 3rd riff of G)
D#|--------------------------------------------------------|
A#|--------------------------------------------------------|
F#|--------------------------------------------------------|
C#|----2------2------2------2-0-2-3-----3------3-----3-2-0-|
G#|------0------0------0------------0-----0------0---------|
D#|-0------0------0------0------------1-----1------1-------|

D#|--------------------------------------------------------|
A#|--------------------------------------------------------|
F#|--------------------------------------------------------|
C#|-2------2------2--------2-0------------------------0----|
G#|---0------0-------0---------3-2------3-----2-----3------|
D#|-----0------0-------0------------0-0---0-0---0-0--------|

D#|--------------------------------------------------------|
A#|--------------------------------------------------------|
F#|--------------------------------------------------------|
C#|----2------2------2------2-0-2-3-----3------3-----3-2-0-|
G#|------0------0------0------------0-----0------0---------|
D#|--------0------0------0------------1-----1------1-------|

D#|--------------------------------------------------------|
A#|--------------------------------------------------------|
F#|--------------------------------------------------------|
C#|-2------2------2--------2-0-----------------------------|
G#|---0------0-------0---------3-2-------------------------|
D#|-----0------0-------0-----------------------------------|

[Riff D]
D#|--------------------------------------------------------|
A#|--------------------------------------------------------|
F#|--------------------------------------------------------|
C#|-4--------5--------5-4------5-------7-------------------|
G#|-2-2-2-2--3-3-3-3--3-2-2-2--3--3-3--5-------------------|
D#|--------------------------------------------------------|
    x x x    x x x      x x     x x

***************************

/ = forward slide
 = backward slide
h = hammer
p = pick
x = palm mute

***************************
Suggest correction
Give kudos to tab author, rate the tab!
1 2 3 4 5
comments
print report bad tab
guest
You may want to rate the tab now too:
select rating
Wanna post a correction for this tab? Suggest correction