Oops, an error
Loading. Please wait.

I Dont Wanna Be In Love bass

34 views 1 this week
no commentswrite comment
1 2 3 4 5
3 more votes to show rating
add to favorites
×
Save as Personal and add changes to this tab that will be seen only by you. Learn more ›
×
You can save this tab as Personal to edit and correct it or add notes. All changes will be seen only by you. Learn more »
launch autoscroll
font size
0
reset
guitar tuner
edit
Autoscroll
slow
fast
+/-
esc
set tempo
stop
About this tab version
An alternative way to play the bridge is to just pluck each note once and then let it ring. Enjoy :). Was this info helpful? Yes No
[Intro]

G|-------------------------------------------------------------------|
D|-------------------------------------------------------------------|
A|-------------------------------------------------------------------|
D|-0-0-0-0-0-0-0-0--5-5-5-5-5-5-5-5--1-1-1-1-1-1-1-1-1-1-1-1-1-1-1-1-|

G|-------------------------------------------------------------------|
D|-------------------------------------------------------------------|
A|-------------------------------------------------------------------|
D|-0-0-0-0-0-0-0-0--5-5-5-5-5-5-5-5--1-1-1-1-1-1-1-1-1-1-1-1-1-1-1-1-|


[Verse 1]

G|--------------------------------------------------------------------|
D|--------------------------------------------------------------------|
A|--------------------------------------------------------------------|
D|-0-0-0-0-0-0-0-0--5-5-5-5-5-5-5-5--1-1-1-1-1-1-1-1-1-1-1-1--4-4-4-4-|

Just say the word if you wanna go
Go and fall in love with someone else

G|-------------------------------------------------------------------|
D|-------------------------------------------------------------------|
A|-------------------------------------------------------------------|
D|-0-0-0-0-0-0-0-0--5-5-5-5-5-5-5-5--1-1-1-1-1-1-1-1-1-1-1-1-1-1-1-1-|

Go on and find someone better
Who can keep you warm
Who can give you more, yeah

G|-------------------------------------------------------------------|
D|-------------------------------------------------------------------|
A|-------------------------------------------------------------------|
D|-0-0-0-0-0-0-0-0--5-5-5-5-5-5-5-5--1-1-1-1-1-1-1-1-1-1-1-1-1-1-1-1-|

We both know it's not enough

G|----------------------------------|
D|----------------------------------|
A|----------------------------------|
D|-0-0-0-0-0-0-0-0--5-5-5-5-5-5-5-5-|


[Chorus]

G|--------------------------------------------------------------------|
D|--------------------------------------------------------------------|
A|------------------1-1-1-1-1-1-1-1-----------------------------------|
D|-1-1-1-1-1-1-1-1-------------------5-5-5-5-5-5-5-5--3-3-3-3-3-3-3-3-|

If all that we are is two matching scars
Lines in our movie

G|--------------------------------------------------------------------|
D|--------------------------------------------------------------------|
A|------------------1-1-1-1-1-1-1-1-----------------------------------|
D|-1-1-1-1-1-1-1-1-------------------3-3-3-3-3-3-3-3--5-5-5-5-5-5-5-5-|

The same favorite song, we both sing along
Then I don't wanna be in love

G|--------------------------------------------------------------------|
D|--------------------------------------------------------------------|
A|------------------1-1-1-1-1-1-1-1-----------------------------------|
D|-1-1-1-1-1-1-1-1-------------------3-3-3-3-3-3-3-3--5-5-5-5-5-5-5-5-|

E-eh, no I don't wanna be in love

G|--------------------------------------------------------------------|
D|--------------------------------------------------------------------|
A|------------------1-1-1-1-1-1-1-1-----------------------------------|
D|-1-1-1-1-1-1-1-1-------------------3-3-3-3-3-3-3-3--5-5-5-5-5-5-5-5-|

No I don't wanna be in love
E-eh, yeah


[Verse 2]

Fall asleep in the shadows of something beautiful
Till its not enough

G|--------------------------------------------------------------------|
D|--------------------------------------------------------------------|
A|--------------------------------------------------------------------|
D|-0-0-0-0-0-0-0-0--5-5-5-5-5-5-5-5--1-1-1-1-1-1-1-1-1-1-1-1--4-4-4-4-|

I only see you in black and white
Like a photograph of another lie, yeah

G|-------------------------------------------------------------------|
D|-------------------------------------------------------------------|
A|-------------------------------------------------------------------|
D|-0-0-0-0-0-0-0-0--5-5-5-5-5-5-5-5--1-1-1-1-1-1-1-1-1-1-1-1-1-1-1-1-|

G|----------------------------------|
D|----------------------------------|
A|----------------------------------|
D|-0-0-0-0-0-0-0-0--5-5-5-5-5-5-5-5-|


[Chorus]

G|--------------------------------------------------------------------|
D|--------------------------------------------------------------------|
A|------------------1-1-1-1-1-1-1-1-----------------------------------|
D|-1-1-1-1-1-1-1-1-------------------5-5-5-5-5-5-5-5--3-3-3-3-3-3-3-3-|

If all that we are is two matching scars
Lines in our movie

G|--------------------------------------------------------------------|
D|--------------------------------------------------------------------|
A|------------------1-1-1-1-1-1-1-1-----------------------------------|
D|-1-1-1-1-1-1-1-1-------------------3-3-3-3-3-3-3-3--5-5-5-5-5-5-5-5-|

The same favorite song, we both sing along
Then I don't wanna be in love

G|--------------------------------------------------------------------|
D|--------------------------------------------------------------------|
A|------------------1-1-1-1-1-1-1-1-----------------------------------|
D|-1-1-1-1-1-1-1-1-------------------3-3-3-3-3-3-3-3--5-5-5-5-5-5-5-5-|

E-eh, no I don't wanna be in love

G|--------------------------------------------------------------------|
D|--------------------------------------------------------------------|
A|------------------1-1-1-1-1-1-1-1-----------------------------------|
D|-1-1-1-1-1-1-1-1-------------------3-3-3-3-3-3-3-3--5-5-5-5-5-5-5-5-|

No I don't wanna be in love
E-eh, yeah


[Bridge]

G|--------------------------------------------------------------------|
D|------------------------------------------------------------------=-|
A|-1-1-1-1-1-1-1-1--3-3-3-3-3-3-3-3-----------------------------------|
D|-----------------------------------5-5-5-5-5-5-5-5--5-5-5-5-5-5-5-5-|

G|--------------------------------------------------------------------|
D|------------------------------------------------------------------=-|
A|-1-1-1-1-1-1-1-1--3-3-3-3-3-3-3-3-----------------------------------|
D|-----------------------------------5-5-5-5-5-5-5-5--5-5-5-5-5-5-5-5-|

I'd rather be alone than build a broken home
Then hold it on to you like I could never let you go

G|--------------------------------------------------------------------|
D|------------------------------------------------------------------=-|
A|-1-1-1-1-1-1-1-1--3-3-3-3-3-3-3-3-----------------------------------|
D|-----------------------------------5-5-5-5-5-5-5-5--5-5-5-5-5-5-5-5-|

Say what you wanna say
Show what you never show
Let's be honest here and say what we already know

G|--------------------------------------------------------------------|
D|------------------------------------------------------------------=-|
A|-1-1-1-1-1-1-1-1--3-3-3-3-3-3-3-3-----------------------------------|
D|-----------------------------------5-5-5-5-5-5-5-5--5-5-5-5-5-5-5-5-|

Your heart is somewhere else, it's not like I couldn't tell
Can't give you all my love when I don't even love myself

G|-------------------------------|
D|-------------------------------|
A|----------1-1------------------|
D|-1--1-------------5--5-----3-3-|

Trapped in each others arms, we got the best of us

G|--------------|
D|--------------|
A|----------1-1-|
D|-1--1---------|

We keep each other warm, but we both know it's not enough


[Chorus]

G|--------------------------------------------------------------------|
D|--------------------------------------------------------------------|
A|------------------1-1-1-1-1-1-1-1-----------------------------------|
D|-1-1-1-1-1-1-1-1-------------------5-5-5-5-5-5-5-5--3-3-3-3-3-3-3-3-|

If all that we are is two matching scars
Lines in our movie

G|--------------------------------------------------------------------|
D|--------------------------------------------------------------------|
A|------------------1-1-1-1-1-1-1-1-----------------------------------|
D|-1-1-1-1-1-1-1-1-------------------3-3-3-3-3-3-3-3--5-5-5-5-5-5-5-5-|

The same favorite song, we both sing along
Then I don't wanna be in love

G|--------------------------------------------------------------------|
D|--------------------------------------------------------------------|
A|------------------1-1-1-1-1-1-1-1-----------------------------------|
D|-1-1-1-1-1-1-1-1-------------------3-3-3-3-3-3-3-3--5-5-5-5-5-5-5-5-|

E-eh, no I don't wanna be in love

G|--------------------------------------------------------------------|
D|--------------------------------------------------------------------|
A|------------------1-1-1-1-1-1-1-1-----------------------------------|
D|-1-1-1-1-1-1-1-1-------------------3-3-3-3-3-3-3-3--5-5-5-5-5-5-5-5-|

No I don't wanna be in love
E-eh, yeah
Suggest correction
Creating personal tab
Creating personal tab
You can edit any tab online and save it as your Personal.

You can edit, replace or remove any tab part or add personal notes – all changes will be seen only by you.

Personal tabs can be accessed anytime from any device, even offline.
Learn more »
Give kudos to tab author, rate the tab!
1 2 3 4 5
comments
print report bad tab
guest
You may want to rate the tab now too:
select rating
Wanna post a correction for this tab? Suggest correction