Oops, an error
Loading. Please wait.

I Hate The Unseen Bass Tab

234 views 1 this week
no commentswrite comment
1 2 3 4 5
please rate
add to favorites
launch autoscroll
font size
0
reset
guitar tuner
Autoscroll
slow
fast
+/-
esc
set tempo
stop
Help us to improve Ultimate-Guitar.com Take our survey!
×
Darkbuster
22 Songs that You Will Never Wanna Hear Again
I Hate the Unseen

Intro/Verse:
--------------------------|
--------------------------|
--------5----3------------| x4
---3--------------0-1-2---|

Chorus:
-------------------------------------|
-------------------------------------|
-----------5-5-5-5-3-3-3-3-3-2-0-----| x4
---3-3-3-3-----------------------3---|
Suggest correction
Give kudos to tab author, rate the tab!
1 2 3 4 5
comments
print report bad tab
guest
You may want to rate the tab now too:
select rating
Please do not post tabs as comments. Select "correction" instead!