Oops, an error
Loading. Please wait.

Lillith Fair Bass Tab

139 views 1 this week
no commentswrite comment
1 2 3 4 5
3 more votes to show rating
add to favorites
launch autoscroll
font size
0
reset
guitar tuner
Autoscroll
slow
fast
+/-
esc
set tempo
stop
Help us to improve Ultimate-Guitar.com Take our survey!
×
Darkbuster
22 songs that you will never wanna hear again
lillith fair

Verse:
----------------------------------------------------------|
---2-2-2-2-------------------------2-2-------------0011---|
-----------2-2-4-4-4-4-4-4-4-4-0-0-----2-2-2-2-2244-------|
----------------------------------------------------------|

-------------------------|
---2-2-2-2---------------|
-----------2-2-4-4-4-4---|
-------------------------|

Chorus:
---2-2-------------------------------------------|
-------2-2-----2-2-2-2-2-2-2-2-2-2-2-2-2-2-2-2---|
-----------2-2-----------------------------------|
-------------------------------------------------|

Bridge:
-----------------------------------------|
---2-1-----------------2-2-2-2-2-2-2-2---|
-------4-4-4-4-4-4-4-4-------------------|
-----------------------------------------|
Suggest correction
Give kudos to tab author, rate the tab!
1 2 3 4 5
comments
print report bad tab
guest
You may want to rate the tab now too:
select rating
Wanna post a correction for this tab? Suggest correction