Oops, an error
Loading. Please wait.

Space Cowboy Bass Tab

1,186 views 1 this week
no commentswrite comment
1 2 3 4 5
3 more votes to show rating
add to favorites
launch autoscroll
font size
0
reset
guitar tuner
Autoscroll
slow
fast
+/-
esc
set tempo
stop
Help us to improve Ultimate-Guitar.com Take our survey!
×
Author
Difficulty
Darkbuster
22 Songs That You Will Never Wanna Hear Again
Space Cowboy

Intro/Verse:
---------------------------------------------------|
-------------------0-2-0-0---0-2-------------------|
---------0-2-3-3-----------------3-3-3-0-2-2-2-0---| x10
---3-3---------------------------------------------|

Chorus:
-------------------------------------|
-------------------------------------|
-----------3-3-3-3-5-5-5-5-3-3-3-3---| x4
---3-3-3-3---------------------------|
Suggest correction
Give kudos to tab author, rate the tab!
1 2 3 4 5
comments
print report bad tab
guest
You may want to rate the tab now too:
select rating
Wanna post a correction for this tab? Suggest correction