Oops, an error
Loading. Please wait.

Thats Correct Bass Tab

162 views 3 this week
no commentswrite comment
1 2 3 4 5
3 more votes to show rating
add to favorites
launch autoscroll
font size
0
reset
guitar tuner
Autoscroll
slow
fast
+/-
esc
set tempo
stop
Help us to improve Ultimate-Guitar.com Take our survey!
×
Darkbuster
22 Songs that you will never wanna hear again
thats correct

Intro:
-----------------------|
-----------------------|
---5-------5-------5---|
-----3-3-3---3-3-3-----|

Verse:
---------------------|
---------------------|
---------5-3-3-3-5---|  x4
---3-3-3-------------|

Chorus:
-------------------------------------|
-------------------------------------|
---7-7-7-5-3-3-3-5-------5-------5---|
-------------------3-3-3---3-3-3-----|


-------------------------------|
-------------------------------|
---7-7-7-5-3-3-3-5-------5-----|
-------------------3-3-3---3---|

Bridge:
-------------------------------------|
-------------------------------------|
-----------5-5-5-5-3-3-3-5-----------| x8
---3-3-3-3-----------------3-3-3-3---|
Suggest correction
Give kudos to tab author, rate the tab!
1 2 3 4 5
comments
print report bad tab
guest
You may want to rate the tab now too:
select rating
Wanna post a correction for this tab? Suggest correction