Oops, an error
Loading. Please wait.

Convalescence Bass Tab

version 2
version 2

Whole song

Interactive

342 views 1 this week
no commentswrite comment
1 2 3 4 5
please rate
add to favorites
launch autoscroll
font size
0
reset
guitar tuner
Autoscroll
slow
fast
+/-
esc
set tempo
stop
Help us to improve Ultimate-Guitar.com Take our survey!
×
Author
Difficulty
Tuning
intermediate
C G C F A D
This is the tab for convo Im sure 90% is right I might have screwed up under the solo. 
can barely hear Paul in Darkest but hes in there and every time someone did this they did 
wrong, its all on the E string:


F |-----------------------------------------------------------------|
C |-----------------------------------------------------------------|
G |-----------------------------------------------------------------|
C |-------5/--------------------------------------------------------|

Verse:
F |-----------------------------------------------------------------|
C |-----------------------------------------------------------------|
G |-----------------------------------------------------------------|
C |0000000000000000/7777777777777777--------------------------------|

F |-----------------------------------------------------------------|
C |-----------------------------------------------------------------|
G |-----------------------------------------------------------------|
C |0000000000000000/33333333/77777777-------------------------------|x2


Chorus:
F |-----------------------------------------------------------------|
C |-----------------------------------------------------------------|
G |-----------------------------------------------------------------|
C |0000000000000000000000000000000033333333333333337777777777777777-|x4


Verse 2
F |-----------------------------------------------------------------|
C |-----------------------------------------------------------------|
G |-----------------------------------------------------------------|
C |2222222222222222/9999999999999999--------------------------------|

F |-----------------------------------------------------------------|
C |-----------------------------------------------------------------|
G |-----------------------------------------------------------------|
C |2222222222222222/55555555/99-------------------------------------|


Bridge?:
F |-----------------------------------------------------------------|
C |-----------------------------------------------------------------|
G |-----------------------------------------------------------------|
C |12(x16)-10(x16)-8(x16)-7(x16)------------------------------------|x2


Verse 2
F |-----------------------------------------------------------------|
C |-----------------------------------------------------------------|
G |-----------------------------------------------------------------|
C |2222222222222222/9999999999999999--------------------------------|

F |-----------------------------------------------------------------|
C |-----------------------------------------------------------------|
G |-----------------------------------------------------------------|
C |2222222222222222/55555555/99999999-------------------------------|


Chorus:
F |-----------------------------------------------------------------|
C |-----------------------------------------------------------------|
G |-----------------------------------------------------------------|
C |0000000000000000000000000000000033333333333333337777777777777777-|x4


Bridge:
F |-----------------------------------------------------------------|
C |-----------------------------------------------------------------|
G |-----------------------------------------------------------------|
C |000-222-333-101010-8-7-8--5-2-7----------------------------------|x4


Under Guitar Solo:
F |-----------------------------------------------------------------|
C |-----------------------------------------------------------------|
G |-----------------------------------------------------------------|
C |5--7-8--12--10--7-8--4-------------------------------------------|x4


Bridge:
F |------------------------------------------------|  |-------------|
C |------------------------------------------------|  |-------------|
G |------------------------------------------------|  |-------------|
C |000-222-333-101010-8-7-8--5-2-7-----------------|x2|0=========-00|
                                                      (play on 2nd time)

Outro:
F |-----------------------------------------------------------------|
C |-----------------------------------------------------------------|
G |-----------------------------------------------------------------|
C |0====-10====-8====-7==-5--3-2-0----------------------------------|x4
Suggest correction
Give kudos to tab author, rate the tab!
1 2 3 4 5
comments
print report bad tab
guest
You may want to rate the tab now too:
select rating
Wanna post a correction for this tab? Suggest correction