Oops, an error
Loading. Please wait.

Escape Artist Tab

449 views 1 this week
1 commentread comment
1 2 3 4 5
please rate
add to favorites
launch autoscroll
font size
0
reset
how to read this tab
guitar tuner
Autoscroll
slow
fast
+/-
esc
set tempo
stop
Help us to improve Ultimate-Guitar.com Take our survey!
×
Author
Darkest Hour - Escape Artist
Tabbed - Michael Cornwell


b=bend
h=hammer
p=pulloff
.=palm mute
/=slide
T=Tap
#.= Staccato notes
~ = vibrato
X = Dead note


Riff-A 

Guitar 1
d|---------------------------| 
A|---------------------------| 
F|---------------------------| 
C|--0------0----8----7--3----| X 2
G|--0------0----8----7--3----| 
C|--0------0----8----7--3----|

After playing this twice guitar 1 follows guitar 2.

Guitar 2
d|----------------------------------------------| 
A|----------------------------------------------| 
F|----------------------------------------------| 
C|-0--------------------------------------------|
G|-0-8-8-8-7-7-7-8-8-8-10-10-10-8-8-8-7h8-5~----| 
C|-0--------------------------------------------|

d|------------------------------------------------------------------------| 
A|------------------------------------------------------------------------| 
F|------------------------------------------------------------------------| 
C|--7-7-7-5-5-5-7-7-7-8-8-8-7-7-7-5h7-------------------------------------|
G|---------------------------------------------8p7h8p7--------8p7h8p7-----| 
C|-------------------------------------8~-8-8----------7~-7-7-------------|

Guitar 1
d|-------------------| 
A|-------------------| 
F|-------------------| 
C|-8-8-8-8-7-7-7-7---|
G|-8-8-8-8-7-7-7-7---| 
C|-8-8-8-8-7-7-7-7---|

Guitar 2
d|----------------------| 
A|----------------------| 
F|-7-7-7-7-9-9-10-10----| 
C|----------------------|
G|-5-5-5-5-7-7-8--8-----| 
C|----------------------|


Riff-B  (Verse)


Guitar 1
d|--------------------------------------| 
A|--------------------------------------| 
F|--------------------------------------| 
C|--6--0-0--0-6--0-0--0--8-8-8-7-7-7----|  X 3
G|--6--0-0--0-6--0-0--0--8-8-8-7-7-7----| 
C|--6--0-0--0-6--0-0--0--8-8-8-7-7-7----|

Guitar 2
d|-----------------------------------------| 
A|-----------------------------------------| 
F|-----------------------7-7-7-9-9-10-10---| 
C|--6--0-0--0-6--0-0--0--------------------| X 3
G|--6--0-0--0-6--0-0--0--5-5-5-7-7-8--8----| 
C|--6--0-0--0-6--0-0--0--------------------|


Both Guitars

d|---------------------------| 
A|---------------------------| 
F|---------------------------| 
C|--6--0-0--0-6--0-0--0------|  X 3
G|--6--0-0--0-6--0-0--0------| 
C|--6--0-0--0-6--0-0--0------|

Repeat
Riff A
Riff B

Both Guitars
d|--------------------------------------------| 
A|--------------------------------------------| 
F|--------------------------------------------| 
C|-0--------------------------------8-8-8-8---|
G|-0--------------------------------8-8-8-8---| 
C|-0--------1---3----5---7-8--------8-8-8-8---|
            Play while sliding up

Riff-C

Both Guitars
d|---------------------------------------------------------------| 
A|---------------------------------------------------------------| 
F|---------------------------------------------------------------| 
C|-0-------------0-----------3-------3-------3-------8-8-8-8-----|
G|-0-------------0-----------3-------3-------3-------8-8-8-8-----| 
C|-0-0-0-0-0-0-0-0-0-0-0-0-0-3-0-0-0-3-0-0-0-3-0-0-0-8-8-8-8-----|
     . . . . . .   . . . . .   . . .   . . .   . . .

Riff-D

Guitar 1
d|-----------------------------------------------------------------| 
A|-----------------------------------------------------------------| 
F|-----------------------------------------------------------------| 
C|--------------------7-5-7-8-7-5h7--------------------------------|
G|--8-7-8-10-8-7h8-5~------------------------10-8-7-------10-8-7---|
C|-----------------------------------8~-8-8--------7-7-7~----------|

Guitar 2
d|----------------------------------------------------------| 
A|----------------------------------------------------------| 
F|----------------------------------------------------------| 
C|--7-5-7-8-7-5h7-----10-8-10-12-10-8h10---8----7---3---0---|
G|----------------8~-----------------------8----7---3---0---|
C|-----------------------------------------8----7---3---0---|

Last time Guitar 1 plays
d|--------------------------------------------------| 
A|--------------------------------------------------| 
F|--------------------------------------------------| 
C|--------------------7-5-7-8-7-5h7--8---7----3--0--|
G|--8-7-8-10-8-7h8-5~----------------8---7----3--0--|
C|-----------------------------------8~--7----3--0--|


Repeat
Riff A
Riff B
Suggest correction
Give kudos to tab author, rate the tab!
1 2 3 4 5
comments
print report bad tab
1 comment total.
0 reply
tired and lazy6 10 wrote on July 12 2007, 04:52 pm

nice tab.....some of it is a little wrong but nice 4 star tab

guest
You may want to rate the tab now too:
select rating
Please do not post tabs as comments. Select "correction" instead!