Oops, an error
Loading. Please wait.

Reflections Of Ruin Bass Tab

135 views 1 this week
no commentswrite comment
1 2 3 4 5
3 more votes to show rating
add to favorites
launch autoscroll
font size
0
reset
guitar tuner
Autoscroll
slow
fast
+/-
esc
set tempo
stop
Help us to improve Ultimate-Guitar.com Take our survey!
×
Band- Darkest Hour
Song- Reflections Of Ruin

Tuning: C G C F

Intro (0:00)
F |----------------|
C |----------------|
G |----------------|
C |--2-33-2-33-0~--|

Verse (0:18)
F |----------------------------|
C |----------------------------|
G |---------------8-5-3-5p4p3--|
C |--2-33-2-33-0~--------------|

Chorus (0:37)
F |---------------------------|
C |---------------------------|
G |---------------------------|
C |--0~-000-3-0-2~-2-33-2-33--|

Verse (0:53)
Chorus (1:11)

Bridge (1:37)
F |--------------------------|
C |--------------------------|
G |--------<5>-<5>-----------|
C |--00-00---------000-2222--|
(1:47)
F |-----------------------------------------------|
C |-----------------------------------------------|
G |--8888-8888-7777-3333--------<5>-<5>-----------|
C |----------------------00-000---------000-2222--|
(2:08)
F |---------------------------------------------|
C |---------------------------------------------|
G |--------<5>-<5>----------------<5>-<5>-------|
C |--00-00---------000-2222-00-00---------0000--|

Verse (2:16)
Chorus (2:34)

Fill (2:50)
F |--------------------------|
C |--------------------------|
G |--------------------------|
C |--00--00--00--00--00--12\-|

Ending Riff (3:06)
F |------------------------------|
C |------------------------------|
G |--------------------------5~--|
C |--0-3-2-0-5-3-0-3-2-0-3-2-----|
Suggest correction
Give kudos to tab author, rate the tab!
1 2 3 4 5
comments
print report bad tab
guest
You may want to rate the tab now too:
select rating
Wanna post a correction for this tab? Suggest correction