Oops, an error
Loading. Please wait.

English Country Garden Tab

version 1
version 1

Solo

  • Rather fast-paced solo, definitely listen to the song for timing during this.

Whole song

Interactive

7 views 3 this week
no commentswrite comment
1 2 3 4 5
3 more votes to show rating
add to favorites
launch autoscroll
font size
0
reset
how to read this tab
guitar tuner
Autoscroll
slow
fast
+/-
esc
set tempo
stop
Help us to improve Ultimate-Guitar.com Take our survey!
×
Author
Difficulty
intermediate
About this tab version
Rather fast-paced solo, definitely listen to the song for timing during this. Was this info helpful? Yes No
[Solo - 2:00]

e|--------16-17-18-19---------------------------|--12-11-9-------------------------------------------------|
B|--19b21-------------19b21r19-17-16~---17-14~--|----------12-10-9-----------------------------------------|
G|----------------------------------------------|------------------11-9-8-11~-9-11-13~-11-13-14~-13-14-16~-|
D|----------------------------------------------|----------------------------------------------------------|
A|----------------------------------------------|----------------------------------------------------------|
E|----------------------------------------------|----------------------------------------------------------|

e|-----------12----------12-------------------12-15b17~--|--14b16r14-12~---9-------11------12------14------|
B|--------12----------12----------12-------12------------|-----------------12b14---14b16---15b17---17b19---|
G|--14b16-------14b16-------14b16----14b16---------------|-------------------------------------------------|
D|-------------------------------------------------------|-------------------------------------------------|
A|-------------------------------------------------------|-------------------------------------------------|
E|-------------------------------------------------------|-------------------------------------------------|



e|--------12-12-------12-12-------12-------12-12---------|--12p0-11p0-14p0-12p0-16p0-14p0-17p0-16p0--------|
B|--16b17-------16b17-------16b17----16b17-------16b17~--|-------------------------------------------------|
G|-------------------------------------------------------|-------------------------------------------------|
D|-------------------------------------------------------|-------------------------------------------------|
A|-------------------------------------------------------|-------------------------------------------------|
E|-------------------------------------------------------|-------------------------------------------------|

e|--19brbr~---19-17-16-----------------------------------|
B|---------------------19-17~----------------------------|
G|-------------------------------------------------------|
D|-------------------------------------------------------|
A|-------------------------------------------------------|
E|-------------------------------------------------------|


************************************

| h   Hammer-on
| p   Pull-off
| r   Release
| b   Bend
| br  Bend release
| pbr Pre-bend release
| ~   Vibrato

************************************
Suggest correction
Give kudos to tab author, rate the tab!
1 2 3 4 5
comments
print report bad tab
guest
You may want to rate the tab now too:
select rating
Wanna post a correction for this tab? Suggest correction