Oops, an error
Loading. Please wait.

Growing On Me Tab

version 7
version 7
8,723 views 45 this week
1 commentread comment
1 2 3 4 5
accurate
x 5
add to favorites
launch autoscroll
font size
0
reset
how to read this tab
guitar tuner
Autoscroll
slow
fast
+/-
esc
set tempo
stop
Help us to improve Ultimate-Guitar.com Take our survey!
×
Author/Artist: the darkness
Title: growing on me

REMEMBER! DROP D!

-|-----5-----5--------------------0--------5-----5--------------------0--|----|
-|--3----3-----3------------3-------3--------3-----3------------3-------3|----|
-|--2------2-----2-2------2---2----------------2-----2-2------2---2------|----|
-|--0-------------------0-------0---------------------------0-------0----|----|
-|--------------------4-----------------------------------4--------------|----|
-|-----------------------------------------------------------------------|----|
       intro

-|-5-----5--------------------0------------------------------------------|----|
-|---3-----3------------3------------------------------------------------|----|
-|-----2-----2-2------2---2---------2-2-2-2-2-------------------------\--|----|
-|------------------0-------0-------2-2-2-2-2-------------------------\--|----|
-|----------------4-----------------0-0-0-0-0------5-5-0-5-5-0-0------\--|----|
-|-------------------------------------------------5-4-0-5-4-0-0------\--|----|


-|-------------------------------|----------------|--------33-2-33-3-|--------|
-|-------------------------------|----------------|--------33-3-33-3-|--------|
-|-------------------------------|----------------|-222222-22-2-22-2-|--------|
-|-------------------------------|----------------|-222222-----------|--------|
-|-0-0-7-7-9-9\------0-0-7-7-9-9\|7-7---5-5-5-0---|-000000-----------|--------|
-|-0-0-7-7-9-9\------0-0-7-7-9-9\|7-7---5-4-5-0---|------------------|--------|
   verse                            ist time           2nd time

--|-----------------------------|-------------|-------------------------|-----|
--|-----------------------------|-------------|----------------------3--|-----|
--|-----------------------------|-------------|222222----------------2--|-----|
--|-----------------------------|-------------|222222----------------0--|-----|
--|0-0-7-7-9-9-\---0-0-7-7-9-9\-|-7-7-5-5-5-0-|000000---2-2---2-2-------|-----|
--|0-0-7-7-9-9-\---0-0-7-7-9-9\-|-7-7-5-4-5-0-|---------2-2-0-2-2-4-----|-----|
  verse cont                        ist time        before intro

-|---------------------------------------------------------------------------|
-|---------------------------------------------------------------------------|
-|---------------------------------------------------------------------------|
-|---------------------------------------------------------------------------|
-|-444-55555-777-00000-999-555555-777-00000-444-55555-777-00000-777775505500-|
-|-444-55555-777-00000-999-555555-777-00000-444-55555-777-00000-777775405400-|
  play intro then this chorus

-|-3-3-3-3-2-2-2-2-0-0------|---------------------------|---------------------|
-|-3-3-3-3-3-3-3-3-2-2--3333|-8888--7777--5---5--7777---|---------------------|
-|-2-2-2-2-2-2-2-2-2-2--2222|-7777--7777--6---6--7777---|---------------------|
-|-----------------0-0--0000|-7777--7777--7---7--7777---|---------------------|
-|--------------------------|-5555--5555--5-5-5--5555---|---------------------|
-|--------------------------|---------------------------|---------------------|
 middle (watch the occasional palm mut ing) .   (2versions there)

-|---------------------------------------------------------------------|------|
-|---------------------------------------------------------------------|------|
-|---------------------------------------------11-12-14-12-11----------|------|
-|------------------------12-12---14-12-14b16-----------------14b15rb--|------|
-|-5-x-x-5--x-x-7--7p5-------------------------------------------------|------|
-|---------------------------------------------------------------------|------|
   solo 1

-|----------------------------------------17b19---17-15-14-15-14-12--\|-------|
-|-18b19-18b19---17b19-17-15-17-17b19-15------------------------------|-------|
-|--------------------------------------------------------------------|-------|
-|--------------------------------------------------------------------|-------|
-|--------------------------------------------------------------------|-------|
-|--------------------------------------------------------------------|-------|


-|--------------------------------------0-----------------------------|-------|
-|-----------------------------3-3-2------3b5-----3b5--3-3b5-3b5-3b5--|-------|
-|------------------------2----------2--------------------------------|-------|
-|12--0---2b4-0-0-2-4-2-4---------------------------------------------|-------|
-|--------------------------------------------------------------------|-------|
-|--------------------------------------------------------------------|-------|
        solo 2

-|-2p0---0-----------------------------------------2p0-----0h2p0--2-///|------|
-|-----3---3p2h3p2-0h2-0---0-------------------3-------3-3-------------|------|
-|-----------------------2---2-----------------------------------------|------|
-|-----------------------------4p2--0------x-x-------------------------|------|
-|---------------------------------------------------------------------|------|
-|---------------------------------------------------------------------|------|


-|-x------------------------------------------17-------17-------17-------17--|
-|---15-x-15-------------15b17--15b17---17b19----17b19----17b19----17b19-----|
-|-----------x-16-14-14------------------------------------------------------|
-|---------------------------------------------------------------------------|
-|---------------------------------------------------------------------------|
-|---------------------------------------------------------------------------|


-|-------17------10-10-10-10-10-10-10-10---12p10-10-14p10-10--12p10-10-14p10-|
-|-17b19---------10-10-10-10-10-10-10-10-------------------------------------|
-|---------------------------------------------------------------------------|
-|---------------------------------------------------------------------------|
-|---------------------------------------------------------------------------|
-|---------------------------------------------------------------------------|


-|12p10-10--14p10-10-12p10-10-10-14p10-10-12p10-10----------------------------|
-|-------------------------------------------------10-10-12p10-10-12p10-10----|
-|----------------------------------------------------------------------------|
-|----------------------------------------------------------------------------|
-|----------------------------------------------------------------------------|
-|----------------------------------------------------------------------------|


-|----------------------------------------------------------------|-----------|
-|-12p10-10--7-7-7-8-7---5-2-5-3--2-3-2-0-2-0h2p0---0-------------|-----------|
-|------------------------------------------------2---2-----------|-----------|
-|------------------------------------------------------4-5-4-0---|-----------|
-|----------------------------------------------------------------|-----------|
-|----------------------------------------------------------------|-----------|
  then it fades to end
Suggest correction What's this?
You can suggest a correction to this tab. Community and Mods will review your correction and vote to approve or reject it.
comments
print report bad tab
1 comment total.
0 reply
RS-GUITARIST 280 wrote on October 9 2006, 12:11 pm

this looks like a god tab, could possibly change the order, its a bit hard to follow, like make easier to read in the order. thats all though - 4 stars

I want to post or [tab]
guest
You may want to rate the tab now too:
select rating
Please do not post tabs as comments. Select "correction" instead!