Oops, an error
Loading. Please wait.

Black Winged Tab

7 views 1 this week
no commentswrite comment
1 2 3 4 5
3 more votes to show rating
add to favorites
launch autoscroll
font size
0
reset
how to read this tab
guitar tuner
Autoscroll
slow
fast
+/-
esc
set tempo
stop
Help us to improve Ultimate-Guitar.com Take our survey!
×
Author
Difficulty
novice
Artist: Darkthrone
Title: Black Winged
Album: Total Death
Transcribed by: Urano
Ver. 3.00 (28/08/2016)
E-mail: cerebrenitza@hotmail.com

Tuning: Standard


  Part_A [145 bpm] Repeat it 6 times.
e|---------------------|--------------------|--------------------|--------------------|-------------------||
B|---------------------|--------------------|--------------------|--------------------|-------------------||
G|o--------------------|------o--/----------|--------------------|--------------------|------------------o||
D|o--2~----------------|-------/--o---------|--------------------|--------------------|------------------o||
A|---2~----------------|--------------------|--2~------4~--------|--4~----------------|--2~---------------||
E|---0~----------------|--------------------|--3~------5~--------|--5~----------------|--3~---------------||
 |   1   2   3   4        1   2   3   4        1   2   3   4        1   2   3   4        1   2   3   4    |  
 |                                                                                                        |  
e|---------------------|--------------------|--------------------|--------------------|-------------------||
B|---------------------|--------------------|--------------------|--------------------|-------------------||
G|o--------------------|------o--/----------|--------------------|--------------------|------------------o||
D|o--2~----------------|-------/--o---------|--------------------|--------------------|------------------o||
A|---2~----------------|--------------------|--2~------4~--------|--4~----------------|--2~---------------||
E|---0~----------------|--------------------|--3~------5~--------|--5~----------------|--3~---------------||
      1   2   3   4        1   2   3   4        1   2   3   4        1   2   3   4        1   2   3   4       


  Part_B [145 bpm] Repeat it 4 times.
e|---------------------|--------------------|--------------------|---------------------||
B|---------------------|--------------------|--------------------|---------------------||
G|o--------------------|--------------------|------------------o--/-------------------o||
D|o--2~----------------|--2~----------------|-------------------/--o------------------o||
A|---2~------2~--------|--2~------3~--2~----|--------------------|---------------------||
E|---0~------3~--------|--0~------4~--3~----|--------------------|---------------------||
 |   1   2   3   4        1   2   3   4        1   2   3   4        1   2   3   4      |  
 |                                                                                     |  
e|---------------------|--------------------|--------------------|---------------------||
B|---------------------|--------------------|--------------------|---------------------||
G|o--------------------|--------------------|------------------o--/-------------------o||
D|o--2~----------------|--2~----------------|-------------------/--o------------------o||
A|---2~------2~--------|--2~------3~--2~----|--------------------|---------------------||
E|---0~------3~--------|--0~------4~--3~----|--------------------|---------------------||
      1   2   3   4        1   2   3   4        1   2   3   4        1   2   3   4         


  Part_C [130 bpm] Repeat it 8 times.
e|---------------------|--------------------|--------------------|---------------------||
B|---------------------|--------------------|--------------------|---------------------||
G|o--------------------|--------------------|--------------------|--------------------o||
D|o--2-2-2-------------|--2-2-2-2-2---------|--2-2-2-------------|--2-2-2-2-2---------o||
A|---2-2-2-5~----------|--2-2-2-2-2-3~------|--2-2-2-5~----------|--2-2-2-2-2-1~-------||
E|---0-0-0-1~----------|--0-0-0-0-0---------|--0-0-0-1~----------|--0-0-0-0-0----------||
 |   1   2   3   4        1   2   3   4        1   2   3   4        1   2   3   4      |  
 |                                                                                     |  
e|---------------------|--------------------|--------------------|---------------------||
B|---------------------|--------------------|--------------------|---------------------||
G|o--------------------|--------------------|--------------------|--------------------o||
D|o--2-2-2-------------|--2-2-2-2-2---------|--2-2-2-------------|--2-2-2-2-2---------o||
A|---2-2-2-5~----------|--2-2-2-2-2-3~------|--2-2-2-5~----------|--2-2-2-2-2-1~-------||
E|---0-0-0-1~----------|--0-0-0-0-0---------|--0-0-0-1~----------|--0-0-0-0-0----------||
      1   2   3   4        1   2   3   4        1   2   3   4        1   2   3   4         


  Part_D [130 bpm] Repeat it 4 times.
e|---------------------|--------------------|--------------------|--------------------|-------------||
B|---------------------|--------------------|--------------------|--------------------|-------------||
G|o--------9~7~--9~----|--9~----------------|--------------------|--------------------|------------o||
D|o--2~----9~7~--9~----|--9~------2~--------|--2~----------------|--------------------|------------o||
A|---2~----7~5~--7~----|--7~------2~--------|--2~----------------|--2~----------------|--1~---------||
E|---0~----------------|----------0~--------|--0~----------------|--3~----------------|--2~---------||
 |   1   2   3   4        1   2   3   4        1   2   3   4        1   2   3   4        1   2      |  
 |                                                                                                  |  
e|---------------------|--------------------|--------------------|--------------------|-------------||
B|---------------------|--------------------|--------------------|--------------------|-------------||
G|o--------9~7~--9~----|--9~----------------|--------------------|--------------------|------------o||
D|o--2~----9~7~--9~----|--9~------2~--------|--2~----------------|--------------------|------------o||
A|---2~----7~5~--7~----|--7~------2~--------|--2~----------------|--2~----------------|--1~---------||
E|---0~----------------|----------0~--------|--0~----------------|--3~----------------|--2~---------||
      1   2   3   4        1   2   3   4        1   2   3   4        1   2   3   4        1   2         


  Part_E [145 bpm]
e|---------------------|---------------------||
B|---------------------|---------------------||
G|o--------------------|--------------------o||
D|o--2~----------------|--2~----------------o||
A|---2~------2~--------|--2~------3~--2~-----||
E|---0~------3~--------|--0~------4~--3~-----||
 |   1   2   3   4        1   2   3   4      |  
 |                                           |  
e|---------------------|---------------------||
B|---------------------|---------------------||
G|o--------------------|--------------------o||
D|o--------------------|--------------------o||
A|---------------------|---------------------||
E|---------------------|---------------------||
      1   2   3   4        1   2   3   4         


Part_B [145 bpm] Repeat it 3.5 times.

Part_C [130 bpm] Repeat it 9 times. [Fade out at 9th time]


************************************

| /  Slide up
| ~  Vibrato
| o  reprise

************************************
Suggest correction
Give kudos to tab author, rate the tab!
1 2 3 4 5
comments
print report bad tab
guest
You may want to rate the tab now too:
select rating
Wanna post a correction for this tab? Suggest correction