Oops, an error
Loading. Please wait.

Boreal Fiends Tab

220 views 3 this week
1 commentread comment
1 2 3 4 5
2 more votes to show rating
add to favorites
launch autoscroll
font size
0
reset
how to read this tab
guitar tuner
Autoscroll
slow
fast
+/-
esc
set tempo
stop
Help us to improve Ultimate-Guitar.com Take our survey!
×
Author
Difficulty
novice
            Boreal Fiends
              Darkthrone
         Arctic Thunder (2016)

Pretty simple song from the new record. 
Just read the tab while listening to the song and you will easily figure out the timing of the riffs
         
[Riff 1 - 0:00 & 1:11]

e|-------------------------------------|
B|--let the notes ring-----------------|
G|-------------------------------------|
D|------------0-----0------------------|
A|-0-------------0-----0-------0-------|
E|------------------------4------------|

 
[Riff 2 - 0:45 & 1:25 & 1:53]

e|-------------------------------------|
B|-------------------------------------|
G|-------------2-----------------------|
D|-4--4"---4-5---5-4----4"-------------|
A|-2--2"----------------2"-------------|
E|-------------------------------------|


[Riff 3 - 1:39 & 2:05]                 Ends with regular power chords at 2:28
 
e|-------------------------------------|   e|-----------------------|
B|-------------------------------------|   B|-----------------------|
G|-------------------------------------|   G|-----------------------|
D|-5--5"-----8"--7"--5"---7"-5"-4"-----|   D|-8---7---5---7--5--4---|
A|-3--3"-----6"--5"--3"---5"-3"-2"-----|   A|-6---5---3---5--3--2---|
E|-------------------------------------|   E|-----------------------|


[Riff 4 - 2:42]

e|-----------------------------------------------------------------------------------|
B|-----------------------------------------------------------------------------------|
G|---------------------------------------------------------------------slight bend---|
D|-----------------------------------------------------------------------------------|
A|-7--5--5--7--8-------7--5--5--7--10-------7--5--5--7--8--------7--5--3b--3--2------|
E|-5--3--3--5--6-------5--3--3--5--8--------5--3--3--5--6--------5--3------1--0------|


[Riff 5 - 4:19]

       [PM-----------------------]    [PM--------]
e|-----------------------------------------------------------------------|
B|-----------------------------------------------------------------------|
G|-----------------------------------------------------------------------|
D|-----------------------------------------------------------------------|
A|-5--7---------------------------5--7-----------10-10--9---9--10--------|
E|-3--5-5-5-5-5-5-5-5-5-5-5-5-5-5-3--5-5-5-5-5-5-8--8---7---7--8---------|

       [PM-----------------------]    [PM--------]
e|-----------------------------------------------------------------------|
B|-----------------------------------------------------------------------|
G|-----------------------------------------------------------------------|
D|-----------------------------------------------------------------------|
A|-5--7---------------------------5--7-----------3--3---2---2--3---------|
E|-3--5-5-5-5-5-5-5-5-5-5-5-5-5-5-3--5-5-5-5-5-5-1--1---0---0--1---------|


[Solo - 4:50]                                                                        
                                                                             After the second time play this 

e|-/20-20-20\----/19-19-19\----/17-17-17\----/15-15-15\12----12tr13-----|      e|-13--------------------|
B|----------------------------------------------------------------------|      B|-----12--12tr13--------|
G|----------------------------------------------------------------------|      G|-----------------------|
D|----------------------------------------------------------------------|x2    D|-----------------------|
A|----------------------------------------------------------------------|      A|-----------------------|
E|----------------------------------------------------------------------|      E|-----------------------|
                                                                   The timing on this is a bit weird, but just
                                                                   listen to the song and figure it out.
                                                                   That applies to the entire solo really.

e|-------------------------------------------------------------------------------|
B|-9-9-9--10-10-10"----13"-----15"---17"---15"---13"---10"---12"-----11"----10"--|
G|--------------------(12")---(14")-(15")-(14")-(12")-(9")--(11")---(12")--(11")-|
D|-------------------------------------------------------------------------------|
A|-----------this is hard to decipher so I put some notes in parentheses,--------| 
E|------------so just play both strings if you want to---------------------------|
                                                                               

e|----15----13----17----|        e|----15----13----12----17----|      e|-15--17----------\15~--| 
B|-12----12----12-------|        B|-12----12----12----12-------|      B|-----------------------|  
G|----------------------|        G|----------------------------|      G|-----------------------|
D|----------------------|        D|----------------------------|x3    D|-----------------------|
A|----------------------|        A|----------------------------|      A|-----------------------|
E|----------------------|        E|----------------------------|      E|-----------------------|

And then the beginning of the solo repeats as the song fades out. I won't claim it is 100% accurate.

That's it.


==================
| PM  palm mute
| "   tremolo Pick
| b   bend
| tr  trill
| ~   vibrato
| /   slide up
| \   slide down
==================

Suggest correction
Give kudos to tab author, rate the tab!
1 2 3 4 5
comments
print report bad tab
1 comment total.
0 reply
binadra1234 5,476 Oct 23, 2016 12:55 PM

I love solo at the end :D

guest
You may want to rate the tab now too:
select rating
Wanna post a correction for this tab? Suggest correction