Oops, an error
Loading. Please wait.

En As I Dype Skogen Tab

version 1
version 1

Whole song

Interactive

40 views 1 this week
no commentswrite comment
1 2 3 4 5
3 more votes to show rating
add to favorites
launch autoscroll
font size
0
reset
how to read this tab
guitar tuner
Autoscroll
slow
fast
+/-
esc
set tempo
stop
Help us to improve Ultimate-Guitar.com Take our survey!
×
Author
Difficulty
Tuning
novice
D# G# C# F# A# D#
Artist: Darkthrone
Title: En As I Dype Skogen
Album: Transilvanian Hunger
Transcribed by: Urano
Ver. 3.00 (28/08/2016)
E-mail: cerebrenitza@hotmail.com

Tuning: Half Down


  Part_A [152 bpm] Repeat it 10 times.
D#|---------------------|--------------------|--------------------|---------------------||#
A#|---------------------|--------------------|--------------------|---------------------||#
F#|o--------------------|--------------------|--------------------|--------------------o||#
C#|o--2~----------------|--5~----------------|--5~----------------|--4~----------------o||#
G#|---2~----------------|--2~----------------|--3~----------------|--3~-----------------||#
D#|---------------------|--------------------|--------------------|---------------------||#
  |   1   2   3   4        1   2   3   4        1   2   3   4        1   2   3   4      |  
  |                                                                                     |  
D#|---------------------|--------------------|--------------------|---------------------||#
A#|---------------------|--------------------|--------------------|---------------------||#
F#|o--9~----------------|-12~----------------|-12~----------------|-11~----------------o||#
C#|o--9~----------------|--9~----------------|-10~----------------|-10~----------------o||#
G#|---------------------|--------------------|--------------------|---------------------||#
D#|---------------------|--------------------|--------------------|---------------------||#
      1   2   3   4        1   2   3   4        1   2   3   4        1   2   3   4         


  Part_B [152 bpm] Repeat it 4 times.
D#|---------------------|--------------------|--------------------|---------------------||#
A#|---------------------|--------------------|--------------------|---------------------||#
F#|o--------------------|--------------------|--------------------|--------------------o||#
C#|o--4~----------------|--2~----------------|--5~----------------|--5~----------------o||#
G#|---2~----------------|--2~----------------|--3~----------------|--5~-----------------||#
D#|---------------------|--------------------|--------------------|---------------------||#
  |   1   2   3   4        1   2   3   4        1   2   3   4        1   2   3   4      |  
  |                                                                                     |  
D#|---------------------|--------------------|--------------------|---------------------||#
A#|---------------------|--------------------|--------------------|---------------------||#
F#|o-11~----------------|--9~----------------|--5~----------------|--7~----------------o||#
C#|o--9~----------------|--9~----------------|--5~----------------|--5~----------------o||#
G#|---------------------|--------------------|--------------------|---------------------||#
D#|---------------------|--------------------|--------------------|---------------------||#
      1   2   3   4        1   2   3   4        1   2   3   4        1   2   3   4         


Part_A [152 bpm] Repeat it 6 times.

Part_B [152 bpm] Repeat it 4 times.


  Part_C [152 bpm]
D#|---------------------|--------------------|--------------------|---------------------||#
A#|---------------------|--------------------|--------------------|---------------------||#
F#|o--------------------|------o--/----------|--------------------|------o--/----------o||#
C#|o--------------------|-------/--o---------|--------------------|-------/--o---------o||#
G#|--10~----------------|--------------------|--6~----------------|---------------------||#
D#|---8~----------------|--------------------|--4~----------------|---------------------||#
  |   1   2   3   4        1   2   3   4        1   2   3   4        1   2   3   4      |  
  |                                                                                     |  
D#|---------------------|--------------------|--------------------|---------------------||#
A#|---------------------|--------------------|--------------------|---------------------||#
F#|o--------------------|------o--/----------|--------------------|------o--/----------o||#
C#|o--5~----------------|-------/--o---------|--6~----------------|-------/--o---------o||#
G#|---7~----------------|--------------------|--6~----------------|---------------------||#
D#|---------------------|--------------------|--------------------|---------------------||#
      1   2   3   4        1   2   3   4        1   2   3   4        1   2   3   4         


  Part_D [152 bpm] Repeat it 6 times.
D#|---------------------|--------------------|--------------------|---------------------||#
A#|---------------------|--------------------|--------------------|---------------------||#
F#|o--------------------|------o--/----------|--------------------|------o--/----------o||#
C#|o--------------------|-------/--o---------|--------------------|-------/--o---------o||#
G#|--10~----------------|--------------------|--6~----------------|---------------------||#
D#|---8~----------------|--------------------|--4~----------------|---------------------||#
  |   1   2   3   4        1   2   3   4        1   2   3   4        1   2   3   4      |  
  |                                                                                     |  
D#|---------------------|--------------------|--------------------|---------------------||#
A#|---------------------|--------------------|--------------------|---------------------||#
F#|o--------------------|--------------------|--------------------|------o--/----------o||#
C#|o--------------------|----------------8~--|--9~----------------|-------/--o---------o||#
G#|---7~----------------|--6~----------------|--------------------|---------------------||#
D#|---------------------|--------------------|--------------------|---------------------||#
      1   2   3   4        1   2   3   4        1   2   3   4        1   2   3   4         


  Part_E [152 bpm]
D#|---------------------|--------------------|--------------------|---------------------||#
A#|---------------------|--------------------|--------------------|---------------------||#
F#|o--------------------|------o--/----------|--------------------|------o--/----------o||#
C#|o--------------------|-------/--o---------|--------------------|-------/--o---------o||#
G#|--10~----------------|--------------------|--6~----------------|---------------------||#
D#|---8~----------------|--------------------|--4~----------------|---------------------||#
  |   1   2   3   4        1   2   3   4        1   2   3   4        1   2   3   4      |  
  |                                                                                     |  
D#|---------------------|--------------------|--------------------|---------------------||#
A#|---------------------|--------------------|--------------------|---------------------||#
F#|o--------------------|--------------------|--------------------|-------------11~\---o||#
C#|o--------------------|----------------8~--|--9~----------------|--9~----------9~\---o||#
G#|---7~----------------|--6~----------------|--------------------|---------------------||#
D#|---------------------|--------------------|--------------------|---------------------||#
      1   2   3   4        1   2   3   4        1   2   3   4        1   2   3   4         


Part_A [152 bpm] Repeat it 6 times.


  Part_F [152 bpm] Repeat it 4 times.
D#|---------------------|--------------------|--------------------|---------------------||#
A#|---------------------|--------------------|--------------------|---------------------||#
F#|o--------------------|--------------------|--------------------|--------------------o||#
C#|o--4~----------------|--2~----------------|--5~----------------|--5~----------------o||#
G#|---2~----------------|--2~----------------|--5~----------------|--3~-----------------||#
D#|---------------------|--------------------|--------------------|---------------------||#
  |   1   2   3   4        1   2   3   4        1   2   3   4        1   2   3   4      |  
  |                                                                                     |  
D#|---------------------|--------------------|--------------------|---------------------||#
A#|---------------------|--------------------|--------------------|---------------------||#
F#|o-11~----------------|--9~----------------|--7~----------------|--5~----------------o||#
C#|o--9~----------------|--9~----------------|--5~----------------|--5~----------------o||#
G#|---------------------|--------------------|--------------------|---------------------||#
D#|---------------------|--------------------|--------------------|---------------------||#
      1   2   3   4        1   2   3   4        1   2   3   4        1   2   3   4         


  Part_G [120 bpm]
D#|---------------------|--------------------|--------------------|--------------------|
A#|---------------------|--------------------|--------------------|--------------------|
F#|o--------------------|--------------------|--------------------|--------------------|
C#|o--7-----------------|-(7)----------------|-(7)----------------|-(7)----------------|
G#|---0-----------------|-(0)----------------|-(0)----------------|-(0)----------------|
D#|---------------------|--------------------|--------------------|--------------------|
  |   1   2   3   4        1   2   3   4        1   2   3   4        1   2   3   4     |
  |                                                                                    |
D#|---------------------|--------------------|--------------------|--------------------|
A#|---------------------|--------------------|--------------------|--------------------|
F#|o--------------------|--------------------|----------7---6-----|--7-7p6-----6-6p5---|
C#|o--7-----------------|-(7)----------------|--7---8-------------|-------8---------7--|
G#|---------------------|--------------------|--0---0-------------|-(0)-------------0--|
D#|---------------------|--------------------|--------------------|--------------------|
      1   2   3   4        1   2   3   4        1   2   3   4        1   2   3   4      


D#|--------------------|--------------------|--------------------|---------------------||#
A#|--------------------|--------------------|--------------------|---------------------||#
F#|--------------------|--------------------|--------------------|--------------------o||#
C#|-(7)----------------|-(7)----------------|-(7)----------------|-(7)----------------o||#
G#|-(0)----------------|-(0)----------------|-(0)----------------|-(0)-----------------||#
D#|--------------------|--------------------|--------------------|---------------------||#
  |  1   2   3   4        1   2   3   4        1   2   3   4        1   2   3   4      |  
  |                                                                                    |  
D#|--------------------|--------------------|--------------------|---------------------||#
A#|--------------------|--------------------|--------------------|---------------------||#
F#|--------------------|--------------------|--------------------|--------------------o||#
C#|--7-7---5---7---8---|-(8)7-7h8p7---------|-(7)----------------|-(7)----------------o||#
G#|-(0)--------0-------|-(0)----------------|-(0)----------------|-(0)-----------------||#
D#|--------------------|--------------------|--------------------|---------------------||#
   1   2   3   4        1   2   3   4        1   2   3   4        1   2   3   4



************************************


| ~   Tremolo Picking
|(n)  Susteined Note
| \   Slide Down
| h   Hammer-on
| p   Pull-off

************************************
Suggest correction
Give kudos to tab author, rate the tab!
1 2 3 4 5
comments
print report bad tab
guest
You may want to rate the tab now too:
select rating
Wanna post a correction for this tab? Suggest correction