Oops, an error
Loading. Please wait.

Hans Siste Vinter tab

version 2
version 2

Whole song

Interactive

5,136 views 33 this week
2 commentsread comments
1 2 3 4 5
x 5
add to favorites
×
Save as Personal and add changes to this tab that will be seen only by you. Learn more ›
×
You can save this tab as Personal to edit and correct it or add notes. All changes will be seen only by you. Learn more »
launch autoscroll
font size
0
reset
how to read this tab
guitar tuner
edit
Autoscroll
slow
fast
+/-
esc
set tempo
stop
Artist: Dark Throne
Title: Hans Siste Vinter

Tabulature by Wooniak



RIFF 1
E-|--------------------------------------------------------------|
B-|--------------------------------------------------------------|
G-|--------------------------------------------------------------|
D-|----------3-3-3-3-4-4-4-4-3-----------------------------------|
A-|--1-1-1-1-----------------------------4-4-4-4-3-3-3-3-4-6-----|
E-|----------------------------1-2-2-2-2-------------------------|
 

RIFF 2 3x
E-|----------------------------------|
B-|----------------------------------|
G-|----------------------------------|
D-|----------1-1-1-1-----------------|
A-|------------------4-4-4-4-3-------|
E-|--2-2-2-2-------------------4-----|


RIFF 3
E-|----------------------------------|
B-|----------------------------------|
G-|----------------------------------|
D-|----------1-1-1-1-----------3-----|
A-|------------------4-4-4-4-3-------|
E-|--2-2-2-2-------------------------|



riff1 10x  0.00-1.09
riff2 3x   1.10-1.19
riff3 1x   1.20-1.23
riff1 4x   1.24-1.51
riff2 11x  1.52-2.31
riff3 1x   2.32-2.35
riff2 3x   2.36-2.45
riff3 1x   2.46-2.49
riff1 16x  2.50-4.48   14th,15th,16th time- without drums
Suggest correction
Creating personal tab
Creating personal tab
You can edit any tab online and save it as your Personal.

You can edit, replace or remove any tab part or add personal notes – all changes will be seen only by you.

Personal tabs can be accessed anytime from any device, even offline.
Learn more »
comments
print report bad tab
2 comments total.
0 reply
dylandempsey6 111 Oct 15, 2014 07:16 PM

Correct me if I'm wrong but I believe tuning is half step down (Eb) and the first riff goes like this:

Eb-|--------------------------------------------------------------|
Bb-|--------------------------------------------------------------|
Gb-|--------------------------------------------------------------|
Db-|----------4-4-4-4-5-5-5-5-4-----------------------------------|
Ab-|--2-2-2-2-----------------------------5-5-5-5-4-4-4-4-5-7-----|
Eb-|----------------------------2-3-3-3-3-------------------------|

And so forth, basically everything played one fret higher. This is how I've seen it played on YouTube and what sounds better to me. Great tab besides that so still a 5* tab.

0 reply
[Neshkan] 11 Jan 02, 2016 04:42 AM, edited at 09:49 am

Riff 2 starts with a G# on the E string and then goes to F# on the second run.

E-|----------------------------------|
B-|----------------------------------|
G-|----------------------------------|
D-|----------1-1-1-1-----------------|
A-|------------------4-4-4-4-3-------|
E-|--4-4-4-4-------------------4-----|

E-|----------------------------------|
B-|----------------------------------|
G-|----------------------------------|
D-|----------1-1-1-1-----------------|
A-|------------------4-4-4-4-3-------|
E-|--2-2-2-2-------------------2-----|

guest
Wanna post a correction for this tab? Suggest correction