Oops, an error
Loading. Please wait.

Quintessence Tab

version 1
version 1

Whole song

Interactive

13,790 views 81 this week
1 commentread comment
1 2 3 4 5
x 4
add to favorites
launch autoscroll
font size
0
reset
how to read this tab
guitar tuner
Autoscroll
slow
fast
+/-
esc
set tempo
stop
Help us to improve Ultimate-Guitar.com Take our survey!
×
[Main riff]
E|---------------------------------------------------------------------|
B|---------------------------------------------------------------------|
G|---------------------------------------------------------------------|
D|-4--4--4--4--4--4--4-2-2-4--4--4--4--4--6-7-7-6-6-7------------------|
A|-4--4--4--4--4--4--4p2-2h4--4--4--4--4--4-4-4-4-4-4------------------|
E|-2--2--2--2--2--2--2p0-0h2--2--2--2--2-------------------------------|
 
(x6)                
E|---------------------------------------------------------------------|
B|---------------------------------------------------------------------|
G|---------------------------------------------------------------------|
D|-------------------------------------------------/-9-9-9-8-8-9-------|
A|---6-6-6-------------------------------------------------------------|
E|---4-4-4-------------------------------------------------------------|


************************************

| h  Hammer-on
| p  Pull-off
| /  Slide up

************************************
Suggest correction
comments
print report bad tab
1 comment total.
0 reply
sikside530 10 Dec 23, 2016 08:58 PM

Hell ya! Love this song thanks for making a tab! i was wondering if you could make a tab on Hit Helga Tre by Burzum

guest
You may want to rate the tab now too:
select rating
Wanna post a correction for this tab? Suggest correction