Oops, an error
Loading. Please wait.

Triumphant Gleam Tab

version 2
version 2

Whole song

204 views 1 this week
no commentswrite comment
1 2 3 4 5
please rate
add to favorites
launch autoscroll
font size
0
reset
how to read this tab
guitar tuner
Autoscroll
slow
fast
+/-
esc
set tempo
stop
Help us to improve Ultimate-Guitar.com Take our survey!
×
Author
Darkthrone-Triumphang Gleam
album: Panzerfaust
My version is on standard tuning, but another song from Panzerfaust used drop or standard D

*-dimming
ny-provision

listen song and you understand what I wrote.

Attention! If you listen to this song cassette tape can be due to elongation of the 
strip will be not good the tuning!


E-----------------------------|
B-----------------------------|
G-----------------------------|
D------4------2---------------|
A------2------0------4--------|
E-0000---0000---0000-2-00-3ny-|
  ****   ****   ****   **

E---------------------------------------------------|
B---------------------------------------------------|
G---------------------------------------------------|
D---------------------------------------------------|
A---------------------------------------------------|
E-222222222222222222222222/666666666666666666666666-|
  ************************ ************************

----------------------------------------------------|
----------------------------------------------------|
----------------------------------------------------|
----------------------------------------------------|
----------------------------------------------------|
-555555555555555555555555/888888888888/777777777777-
 ************************ ************ ************

slow part
E-------------------------------------------|
B-------------------------------------------|
G-------------------------------------------|
D------------8----8//////-------------------|
A-4------4-2-6----6//////--7-----7-2--5-----|
E-2------2-0---------------5-----5-0--3-3ny-|
end of slow part
E-------------------------------------------|
B-------------------------------------------|
G------------8----8//////-------------------|
D------------6----6//////-------------------|
A-4------4-2---------------7-----7-0--5-----|
E-2------2-0---------------5-----5-2--3-2ny-|

E----------------------|
B----------------------|
G----------------------|
D----------------------|
A-666666666-6/7/8/9/10-|
E-444444444-4/5/6/7/8--|

E----------------------------------------------------------|
B----------------------------------------------------------|
G----------------------------------------------------------|
D----------------------------------------------------------|
A-11-11-11-11-11-11-11-11-11------9-9-9-9-9-9-9-9-9--5/6/8-|
E-9--9--9--9--9--9--9--9--9--8ny--7-7-7-7-7-7-7-7-7--3/4/6-|
Suggest correction
Give kudos to tab author, rate the tab!
1 2 3 4 5
comments
print report bad tab
guest
You may want to rate the tab now too:
select rating
Please do not post tabs as comments. Select "correction" instead!