Oops, an error
Loading. Please wait.

Where Cold Winds Blow tab

version 2
version 2

Whole song

82 views 1 this week
no commentswrite comment
1 2 3 4 5
3 more votes to show rating
add to favorites
×
Save as Personal and add changes to this tab that will be seen only by you. Learn more ›
×
You can save this tab as Personal to edit and correct it or add notes. All changes will be seen only by you. Learn more »
launch autoscroll
font size
0
reset
how to read this tab
guitar tuner
edit
Autoscroll
slow
fast
+/-
esc
set tempo
stop
Author
Difficulty
Tabber: Lawrence Brown
Email: Loza04@msn.com

Standard Tuning

[Main Riff 1] - Pattern can vary slightly + let notes ring over one another
e|------------------------------------------------------------------|
B|------------------------------------------------------------------|
G|------------------------------------------------------------------|
D|-------------00000000-----------------------00000000--------------|
A|--------44444--------44444444----------44444--------44444444------|
E|--333333---------------------3333333333---------------------3333--|

e|------------------------------------------------------------------|
B|------------------------------------------------------------------|
G|------------------------------------------------------------------|
D|--------------00000000----------------------00000000--------------|
A|--------888888--------666666----------888888--------88888888------|
E|--666666--------------------6666666666----------------------6666--|

e|------------------------------------------------------------------|
B|------------------------------------------------------------------|
G|------------------------------------------------------------------|
D|-------------00000000-----------------------00000000--------------|
A|--------44444--------44444444----------44444--------44444444------|
E|--333333---------------------3333333333---------------------3333--|

e|------------------------------------------------------------------|
B|------------------------------------------------------------------|
G|------------------------------------------------------------------|
D|-------------00000000-----------------------00000000--------------|
A|--------44444--------44444444----------44444--------44444444------|
E|--222222---------------------2222222222---------------------2222--|

[Main Riff 2]
e|------------------------------------------------------------------|
B|------------------------------------------------------------------|
G|------------------------------------------------------------------|
D|-------------00000000-----------------------00000000--------------|
A|--------44444--------44444444----------44444--------44444444------|
E|--333333---------------------3333333333---------------------3333--|

e|------------------------------------------------------------------|
B|------------------------------------------------------------------|
G|------------------------------------------------------------------|
D|--------------00000000----------------------00000000--------------|
A|--------888888--------666666----------888888--------88888888------|
E|--666666--------------------6666666666----------------------6666--|

e|------------------------------------------------------------------|
B|------------------------------------------------------------------|
G|------------------------------------------------------------------|
D|-------------00000000-----------------------00000000--------------|
A|--------44444--------44444444----------44444--------44444444------|
E|--222222---------------------2222222222---------------------2222--|

e|---------------------------------------|
B|---------------------------------------|
G|---------------------------------------|
D|-----------------------------------/4--|
A|--3333333333333333333333333333333--/2--|
E|--1111111111111111111111111111111------|

Repeat above then next riff:

e|----------------------------------------------------|
B|----------------------------------------------------|
G|----------------------------------------------------|
D|--888888777777666666777777888888777777666666777777--|
A|----------------------------------------------------|
E|--666666555555------555555666666555555------555555--|
x4

Then the descending riff 
e|----------------------------------------------------|
B|----------------------------------------------------|
G|----------------------------------------------------|
D|----------------------------------------------------|
A|--77777777666655557777777766665555------------------|
E|--55555555444433335555555544443333------------------|
x2

e|--------------------------------------------------------------------|
B|--------------------------------------------------------------------|
G|--------------------------------------------------------------------|
D|--44444444----4444----------------44444444----4444------------------|
A|--2222222233332222333333333333333322222222333322223333333333333333--|
E|----------1111----1111111111111111--------1111----1111111111111111--|
x2

And repeat all of the above up to the descending riff, play it once then play this
e|----------------------------------------------------|
B|----------------------------------------------------|
G|----------------------------------------------------|
D|----------------------------------------------------|
A|--777777776666555577777777-6-5----------------------|
E|--555555554444333355555555-4-3----------------------|

[Bridge]
e|--------------------------------------------------------|
B|--------------------------------------------------------|
G|--------------------------------------------------------|
D|--7-779-8-7-7-8-6-667-6-6-7-7-779-8-7-7-8-6-667-6-6-7---|
A|--7-777-7-7-7-8-6-666-6-6-667-777-7-7-7-8-6-666-6-6-66--|
E|--5-555-5-5-5-6-4-444-4-4-445-555-5-5-5-6-4-444-4-4-44--|
x4

Bridge riff 2 - first time only
e|-------------------------------------------------------|
B|-------------------------------------------------------|
G|-------------------------------------------------------|
D|--4--4-5--5--5-4-44-5--5--5-4--4-4--4--4-4--4-4--4--4--|
A|--3--3-3--3--3-3-33-3--3--3-2--2-2--2--2-2--2-2--2--2--|
E|-------------------------------------------------------|

then

e|-------------------------------------------------------|
B|-------------------------------------------------------|
G|-------------------------------------------------------|
D|--4-44-5--5--5-4-44-5--5--5-4--4-4--4--4-4--4-4--4--4--|
A|--3-33-3--3--3-3-33-3--3--3-2--2-2--2--2-2--2-2--2--2--|
E|-------------------------------------------------------|
x2

Last time
e|-----------------------------|
B|-----------------------------|
G|-----------------------------|
D|--4-44-5--5--5-4-44-5--5--5--|
A|--3-33-3--3--3-3-33-3--3--3--|
E|-----------------------------|

Then back to this riff
e|--------------------------------------------------------------------|
B|--------------------------------------------------------------------|
G|--------------------------------------------------------------------|
D|--44444444----4444----------------44444444----4444------------------|
A|--2222222233332222333333333333333322222222333322223333333333333333--|
E|----------1111----1111111111111111--------1111----1111111111111111--|
x2

And repeat. Repeat up until the part we repeated to last time and then

[Doom riff]
e|---------------------|
B|---------------------|
G|---------------------|
D|---------------------|
A|--7-------3---7---6--|
E|--5-------1---5---4--|
x4

[Outro riff]
e|----------------------------------------------------------|
B|----------------------------------------------------------|
G|----------------------------------------------------------|
D|----------------------------------------------------------|
A|--7-77777-77777-77773-33337-77776-66666-66666-66666-6666--|
E|--5-55555-55555-55551-11115-55554-44444-44444-44444-4444--|

x3

Final time
e|----------------------------------------|
B|----------------------------------------|
G|----------------------------------------|
D|----------------------------------------|
A|--7-77777-77777-77773-33337-77--6-hold--|
E|--5-55555-55555-55551-11115-55--4-------|

Lead
e|---------------------------------|
B|---------------------------------|
G|---------------------------------|
D|---------------------------------|
A|--5b6b5~-5b7b5~--feedback--------|
E|--------------------------2b4b2--|

************************************

| /  Slide up
| b  Bend
| ~  Vibrato

************************************

            
            
Suggest correction
Creating personal tab
Creating personal tab
You can edit any tab online and save it as your Personal.

You can edit, replace or remove any tab part or add personal notes – all changes will be seen only by you.

Personal tabs can be accessed anytime from any device, even offline.
Learn more »
Give kudos to tab author, rate the tab!
1 2 3 4 5
comments
print report bad tab
guest
You may want to rate the tab now too:
select rating
Wanna post a correction for this tab? Suggest correction