Oops, an error
Loading. Please wait.

In Jesus Name Tab

version 1
version 1

Intro

Whole song

Interactive

17,454 views 84 this week
8 commentsread comments
1 2 3 4 5
x 6
add to favorites
launch autoscroll
font size
0
reset
how to read this tab
guitar tuner
×
Best way to learn
"In Jesus Name"
Autoscroll
slow
fast
+/-
esc
set tempo
stop
Author
Difficulty
[Intro]
e|----------------------------------------|
B|-----10/12-10-7-------10/12-10----------|
G|-7-9------------9-7-9-------------------|
D|----------------------------------------|
A|----------------------------------------|
E|----------------------------------------|


************************************

| /  Slide up

************************************
Suggest correction
comments
print report bad tab
8 comments total. Showing first comments.
0 reply
SonOvDaSon 10 Nov 04, 2013 07:22 AM

Intro:
e|-----------12---10---------------------12---10|
B|---7---9-------------12---10---7---9----------|
G|----------------------------------------------|
D|----------------------------------------------|
A|----------------------------------------------|
E|----------------------------------------------|

0 reply
Bobito Pawner 143 Dec 19, 2013 01:29 AM

Thanks :D I've been lazy too much, thanks for the correction buddy :)

-1 reply
maymayduhbest 10 Apr 30, 2014 07:55 AM

no actually it is this.
e|----------------------------------------|
B|-----12/10--7----------12/10------------|
G|-7-9--------------7-9-------------------|
D|----------------------------------------|
A|----------------------------------------|
E|----------------------------------------|

guest
You may want to rate the tab now too:
select rating
Wanna post a correction for this tab? Suggest correction