Oops, an error
Loading. Please wait.

In Jesus Name Tab

version 1
version 1

Intro

Whole song

Interactive

15,546 views 90 this week
8 commentsread comments
1 2 3 4 5
x 5
add to favorites
launch autoscroll
font size
0
reset
how to read this tab
guitar tuner
Autoscroll
slow
fast
+/-
esc
set tempo
stop
Help us to improve Ultimate-Guitar.com Take our survey!
×
Author
Difficulty
[Intro]
e|----------------------------------------|
B|-----10/12-10-7-------10/12-10----------|
G|-7-9------------9-7-9-------------------|
D|----------------------------------------|
A|----------------------------------------|
E|----------------------------------------|


************************************

| /  Slide up

************************************
Suggest correction
comments
print report bad tab
8 comments total. Showing first comments.
0 reply
SonOvDaSon 10 Nov 04, 2013 12:22 PM

Intro:
e|-----------12---10---------------------12---10|
B|---7---9-------------12---10---7---9----------|
G|----------------------------------------------|
D|----------------------------------------------|
A|----------------------------------------------|
E|----------------------------------------------|

+1 reply
SonOvDaSon 10 Nov 04, 2013 11:34 PM

e|----------------------------------------|
B|-----10/12-10-7-------10/12-10----------|
G|-7-9------------9-7-9-------------------|
D|----------------------------------------|
A|----------------------------------------|
E|----------------------------------------|

0 reply
SonOvDaSon 10 Nov 04, 2013 11:36 PM

The first correction is wrong. This is the correct correction.

guest
You may want to rate the tab now too:
select rating
Wanna post a correction for this tab? Suggest correction