Oops, an error
Loading. Please wait.

Animal Kingdon Tab

25 views 1 this week
no commentswrite comment
1 2 3 4 5
3 more votes to show rating
add to favorites
launch autoscroll
font size
0
reset
how to read this tab
guitar tuner
Autoscroll
slow
fast
+/-
esc
set tempo
stop
Help us to improve Ultimate-Guitar.com Take our survey!
×
Author
Difficulty
novice
Intro

Guitar 1

|--6-------6----6-6----|----------------------------------------------|------------------|------------------|
|--6-------6----6-6----|----------------------------------------------|------------------|------------------|
|--7-------7----7-7----|-------9---------9----------12----------12----|------7-------7---|------7-------7---|
|--8-------8----8-8----|---------10--------10----------13----------13-|--------8-------8-|--------8-------8-|
|--8-------8----8-8----|----10--------10---------13----------13-------|----8-------8-----|----8-------8-----|
|--6-------6----6-6----|--8---------8---------11----------11----------|--6-------6-------|--6-------6-------|


Verse 1

|----------------|-------------------|--------------|------------|--------------|-----------------|
|--------------8-|----------------11-|------------6-|--------6---|------------8-|--------------11-|
|------------9---|-------------12----|----------7---|----------9-|----------9---|-----------12----|
|---------10-----|----------13-------|--------8-----|------------|-------10-----|--------13-------|
|------10--------|-------13----------|------8-------|------8-----|----10--------|-----13----------|
|--8-------------|--11---------------|--6-----------|--6---------|--8-----------|--11-------------|

|--------------|------------|--------------|-----------------|
|------------6-|--------6---|------------8-|--------------11-|
|----------7---|----------9-|----------9---|-----------12----|
|--------8-----|------------|-------10-----|--------13-------|
|------8-------|------8-----|----10--------|-----13----------|
|--6-----------|--6---------|--8-----------|--11-------------|

|--------------|------------|--------------|-----------------|
|------------6-|--------6---|------------8-|--------------11-|
|----------7---|----------9-|----------9---|-----------12----|
|--------8-----|------------|-------10-----|--------13-------|
|------8-------|------8-----|----10--------|-----13----------|
|--6-----------|--6---------|--8-----------|--11-------------|

Guitar 1

|--------------|------------|
|------------6-|--------6---|
|----------7---|----------9-|
|--------8-----|------------|
|------8-------|------8-----|
|--6-----------|--6---------|

Guitar 2
|-6-6-6-6-6-6-6-6|-6-6-6-6-6-6-6-6-|
|-6-6-6-6-6-6-6-6|-6-6-6-6-6-6-6-6-|
|-7-7-7-7-7-7-7-7|-7-7-7-7-7-7-7-7-|
|-8-8-8-8-8-8-8-8|-8-8-8-8-8-8-8-8-|
|-8-8-8-8-8-8-8-8|-8-8-8-8-8-8-8-8-|
|-6-6-6-6-6-6-6-6|-6-6-6-6-6-6-6-6-|


Chorus


Guitars 1+2

|------------------|-----------------|-6-6-6-6-6-6-6-6-|-6-6-6-6-6-6-6-6-|
|------------------|-----------------|-6-6-6-6-6-6-6-6-|-6-6-6-6-6-6-6-6-|
|--5--5--5-5-5-5-7-|-8--8--8-8-8-8-8-|-7-7-7-7-7-7-7-7-|-7-7-7-7-7-7-7-7-|    x2
|--5--5--5-5-5-5-7-|-8--8--8-8-8-8-8-|-8-8-8-8-8-8-8-8-|-8-8-8-8-8-8-8-8-|
|--3--3--3-3-3-3-5-|-6--6--6-6-6-6-6-|-8-8-8-8-8-8-8-8-|-8-8-8-8-8-8-8-8-|
|------------------|-----------------|-6-6-6-6-6-6-6-6-|-6-6-6-6-6-6-6-6-|


Verse 2


Guitar 1

|----------------|-------------------|--------------|------------|--------------|-----------------|
|--------------8-|----------------11-|------------6-|--------6---|------------8-|--------------11-|
|------------9---|-------------12----|----------7---|----------9-|----------9---|-----------12----|
|---------10-----|----------13-------|--------8-----|------------|-------10-----|--------13-------|
|------10--------|-------13----------|------8-------|------8-----|----10--------|-----13----------|
|--8-------------|--11---------------|--6-----------|--6---------|--8-----------|--11-------------|

Guitar 2

|-6-6-6-6-6-6-6-6-|-------------------------|
|-6-6-6-6-6-6-6-6-|-10-10-10-10-10-10-10-10-|
|-7-7-7-7-7-7-7-7-|-10-10-10-10-10-10-10-10-|
|-8-8-8-8-8-8-8-8-|-10-10-10-10-10-10-10-10-|
|-8-8-8-8-8-8-8-8-|-8--8--8--8--8--8--8--8--|
|-6-6-6-6-6-6-6-6-|-------------------------|

Guitar 1

|--------------|------------|
|------------6-|--------6---|
|----------7---|----------9-|
|--------8-----|------------|
|------8-------|------8-----|
|--6-----------|--6---------|


Chorus


Guitar 1+2

|------------------|-----------------|-6-6-6-6-6-6-6-6-|-6-6-6-6-6-6-6-6-|
|------------------|-----------------|-6-6-6-6-6-6-6-6-|-6-6-6-6-6-6-6-6-|
|--5--5--5-5-5-5-7-|-8--8--8-8-8-8-8-|-7-7-7-7-7-7-7-7-|-7-7-7-7-7-7-7-7-|    x2
|--5--5--5-5-5-5-7-|-8--8--8-8-8-8-8-|-8-8-8-8-8-8-8-8-|-8-8-8-8-8-8-8-8-|
|--3--3--3-3-3-3-5-|-6--6--6-6-6-6-6-|-8-8-8-8-8-8-8-8-|-8-8-8-8-8-8-8-8-|
|------------------|-----------------|-6-6-6-6-6-6-6-6-|-6-6-6-6-6-6-6-6-|


|------------------|-----------------|-6-6-6-6-6-6-6-6-|-------------------------|
|------------------|-----------------|-6-6-6-6-6-6-6-6-|-10-10-10-10-10-10-10-10-|
|--5--5--5-5-5-5-7-|-8--8--8-8-8-8-8-|-7-7-7-7-7-7-7-7-|-10-10-10-10-10-10-10-10-|    x2
|--5--5--5-5-5-5-7-|-8--8--8-8-8-8-8-|-8-8-8-8-8-8-8-8-|-10-10-10-10-10-10-10-10-| 
|--3--3--3-3-3-3-5-|-6--6--6-6-6-6-6-|-8-8-8-8-8-8-8-8-|-8--8--8--8--8--8--8--8--|
|------------------|-----------------|-6-6-6-6-6-6-6-6-|-------------------------|


Solo

Guitar 1


|------------|-----------|---------|---------|
|------------|-----------|---------|---------|
|------------|-----------|---------|---------|
|--5-5-3-5-3-|--1-1-1--0-|---------|---------|
|------------|-----------|--3--1-5-|--3--1-5-|
|------------|-----------|---------|---------|

|------------|-----------|---------|---------|
|------------|-----------|---------|---------|
|------------|-----------|---------|---------|
|--5-5-3-5-3-|--1-1-1--0-|---------|---------|
|------------|-----------|--3--1-5-|--3--1-0-|
|------------|-----------|---------|---------|

|-------------|------------|--------------|--------------|
|-------------|------------|--------------|--------------|
|-------------|------------|--------------|--------------|
|-------------|------------|--------------|----/3-3--3-3-|
|-----------0-|--1--0------|--------------|--------------|
|--3--3-1-3---|-------1-1--|--1-1--1-1--1-|--1-----------|

|-------------|------------|--------------|----------------|
|-------------|------------|--------------|----------------|
|-------------|------------|--------------|----------------|
|-------------|------------|--------------|----/3-3----3-3-|
|-----------0-|--1--0------|--------------|----------------|
|--3--3-1-3---|-------1-1--|--1-1--1-1--1-|-1-1----1-1-----|


Pre Chorus

|--8-----------|--11-----------|--6----------|
|--8-----------|--11-----------|--6----------|
|--9-----------|--12-----------|--7----------|
|--10----------|--13-----------|--8----------|
|--10----------|--13-----------|--8----------|
|--8-----------|--11-----------|--6----------|

|--8--8--8--8--8--8--8--8----|--11-11-11-11-11-11-11-11----|
|--8--8--8--8--8--8--8--8----|--11-11-11-11-11-11-11-11----|
|--9--9--9--9--9--9--9--9----|--12-12-12-12-12-12-12-12----|
|--10-10-10-10-10-10-10-10---|--13-13-13-13-13-13-13-13----|
|--10-10-10-10-10-10-10-10---|--13-13-13-13-13-13-13-13----|
|--8--8--8--8--8--8--8--8----|--11-11-11-11-11-11-11-11----|

|--6-6-6-6-6-6-6-6----|-------------------------|
|--6-6-6-6-6-6-6-6----|-10-10-10-10-10-10-10-10-|
|--7-7-7-7-7-7-7-7----|-10-10-10-10-10-10-10-10-|
|--8-8-8-8-8-8-8-8----|-10-10-10-10-10-10-10-10-|
|--8-8-8-8-8-8-8-8----|-8--8--8--8--8--8--8--8--|
|--6-6-6-6-6-6-6-6----|-------------------------|


Chorus


Guitar 1+2

|------------------|-----------------|-6-6-6-6-6-6-6-6-|-6-6-6-6-6-6-6-6-|
|------------------|-----------------|-6-6-6-6-6-6-6-6-|-6-6-6-6-6-6-6-6-|
|--5--5--5-5-5-5-7-|-8--8--8-8-8-8-8-|-7-7-7-7-7-7-7-7-|-7-7-7-7-7-7-7-7-|    x2
|--5--5--5-5-5-5-7-|-8--8--8-8-8-8-8-|-8-8-8-8-8-8-8-8-|-8-8-8-8-8-8-8-8-|
|--3--3--3-3-3-3-5-|-6--6--6-6-6-6-6-|-8-8-8-8-8-8-8-8-|-8-8-8-8-8-8-8-8-|
|------------------|-----------------|-6-6-6-6-6-6-6-6-|-6-6-6-6-6-6-6-6-|


|------------------|-----------------|-6-6-6-6-6-6-6-6-|-------------------------|
|------------------|-----------------|-6-6-6-6-6-6-6-6-|-10-10-10-10-10-10-10-10-|
|--5--5--5-5-5-5-7-|-8--8--8-8-8-8-8-|-7-7-7-7-7-7-7-7-|-10-10-10-10-10-10-10-10-|    x2
|--5--5--5-5-5-5-7-|-8--8--8-8-8-8-8-|-8-8-8-8-8-8-8-8-|-10-10-10-10-10-10-10-10-| 
|--3--3--3-3-3-3-5-|-6--6--6-6-6-6-6-|-8-8-8-8-8-8-8-8-|-8--8--8--8--8--8--8--8--|
|------------------|-----------------|-6-6-6-6-6-6-6-6-|-------------------------|

|----|
|----|
|--5-|
|--5-|
|--3-|
|----|
Suggest correction
Give kudos to tab author, rate the tab!
1 2 3 4 5
comments
print report bad tab
guest
You may want to rate the tab now too:
select rating
Wanna post a correction for this tab? Suggest correction