Oops, an error
Loading. Please wait.

Pandemonium Acoustic tab

version 2
version 2

Whole song

by Darlia
482 views 3 this week
1 commentread comment
1 2 3 4 5
1 last vote to show rating
add to favorites
×
Save as Personal and add changes to this tab that will be seen only by you. Learn more ›
×
You can save this tab as Personal to edit and correct it or add notes. All changes will be seen only by you. Learn more »
launch autoscroll
font size
0
reset
how to read this tab
guitar tuner
edit
Autoscroll
slow
fast
+/-
esc
set tempo
stop
Author
Difficulty
-------------------------------------------------------------------------------
                             Darlia - Pandemonium (Acoustic)
-------------------------------------------------------------------------------
Tabbed by:BradSG

This tab is how Nathan plays Pandemonium on his guitar in the Vevo DSCVR performance, 
anything you don't understand from this tab, listen to their performance and read this
at the same time and it should become clear, if not email me on brad221200@gmail.com 
and I can try help, thanks.

Standard Tuning.
The chords this song is based around:

   Dmin Fmaj Cmaj Gmaj
e|-5----8----8----3----|
B|-6----10---8----3----|
G|-7----10---9----4----|
D|-7----10---10---5----|
A|-5----8----10---5----|
E|-5----8----8----3----|

Intro
e|----5----------------------------------------------------------------------|
B|----6----------9h10--------------------------------------------------------|
G|----7--9/10-10----------9--------4-----------------------------------------|
D|---7---9/10-10----------10-------5-----------------------------------------| x3
A|--5----7/8------------10--------5-(5)--------------------------------------|
E|---------------------8----(0)--3-------------------------------------------|

On the fourth time playing the intro it finish's differently (as follows)

e|----5----------------------------7-----------------------------------------|
B|----6----------9h10--------------------------------------------------------|
G|----7--9/10-10----------9--------------------------------------------------|
D|---7---9/10-10----------10-------------------------------------------------| x1
A|--5----7/8------------10--------5------------------------------------------|
E|---------------------8----(0)--3-------------------------------------------|

Verse

e|----5----------------------------------------------------------------------|
B|----6----------9h10--------------------------------------------------------|
G|----7--9/10-10----------9--------4-----------------------------------------|
D|---7---9/10-10----------10-------5-----------------------------------------| x8
A|--5----7/8------------10--------5-(5)--------------------------------------|
E|---------------------8----(0)--3-------------------------------------------|

Chorus 

   Dmin Fmaj Cmaj Gmaj
e|-5----1----8----3----|
B|-6----1----8----3----|
G|-7----2----9----4----| x4
D|-7----3----10---5----|
A|-5----3----10---5----|
E|-5----1----8----3----|

Verse

e|----5----------------------------------------------------------------------|
B|----6----------9h10--------------------------------------------------------|
G|----7--9/10-10----------9--------4-----------------------------------------|
D|---7---9/10-10----------10-------5-----------------------------------------| x4
A|--5----7/8------------10--------5-(5)--------------------------------------|
E|---------------------8----(0)--3-------------------------------------------|

Chorus

   Dmin Fmaj Cmaj Gmaj
e|-5----1----8----3----|
B|-6----1----8----3----|
G|-7----2----9----4----| x4
D|-7----3----10---5----|
A|-5----3----10---5----|
E|-5----1----8----3----|

Bridge 

Play Dmin for 'So much to keep me from taking, but enough to keep me from waking'
Then strum it again once for 'What I mean is what I've been lately, ain't what I 
be so save me' and then start playing: 

   Dmin Fmaj Cmaj Gmaj
e|-5----1----8----3----|
B|-6----1----8----3----|
G|-7----2----9----4----| x2
D|-7----3----10---5----|
A|-5----3----10---5----|
E|-5----1----8----3----|

For 'from the pandemonium'

Finish on Dmin

Instrumental

Just down strum Dmin 32 times 

and then play... 

   Dmin Fmaj Cmaj Gmaj
e|-5----1----8----3----|
B|-6----1----8----3----|
G|-7----2----9----4----| x10
D|-7----3----10---5----|
A|-5----3----10---5----|
E|-5----1----8----3----|

for the final chorus.
Finish on Dmin

************************************
| ()  optional to play 
| /   slide up
| \   slide down
| h   hammer-on
| p   pull-off
| x   Mute note

************************************
Suggest correction
Creating personal tab
Creating personal tab
You can edit any tab online and save it as your Personal.

You can edit, replace or remove any tab part or add personal notes – all changes will be seen only by you.

Personal tabs can be accessed anytime from any device, even offline.
Learn more »
Give kudos to tab author, rate the tab!
1 2 3 4 5
comments
print report bad tab
1 comment total.
0 reply
hal5 16 Feb 17, 2017 06:45 AM

On the Intro I don't think you need the 9/10 on the G and D string. I feel the 7/8 on it's own sounds true enough! that's just me though! good stuff overall!

guest
You may want to rate the tab now too:
select rating
Wanna post a correction for this tab? Suggest correction