Oops, an error
Loading. Please wait.

Angel Theme tab

version 5
version 5

Whole song

Interactive

56 views 1 this week
no commentswrite comment
1 2 3 4 5
3 more votes to show rating
add to favorites
×
Save as Personal and add changes to this tab that will be seen only by you. Learn more ›
×
You can save this tab as Personal to edit and correct it or add notes. All changes will be seen only by you. Learn more »
launch autoscroll
font size
0
reset
how to read this tab
guitar tuner
edit
Autoscroll
slow
fast
+/-
esc
set tempo
stop
Author
Difficulty
-------------------------------------------------------------------------------
                             Angel Theme - Darling Violetta
-------------------------------------------------------------------------------
Tabbed by: Katana (:

This tab can also be exactly transferred over to the Cello to play it it's original way!
This is very accurate both ways to my ears (which to be honest are rather experienced
when it comes to this song... lots of Angel marathons!!!!!)

WARNING: This version skips a middle version which is done on the bass, not the Cello.
         I only have tabbed the Cello to guitar.

((The Middle Part is normally where Weasley and/or Lorne are in the title Sequence))

| /   slide

Tuning: Standard
No Capo

e|---------------------------------------------------------------------------|
B|--------------------------------------------------1--0/--------------------|
G|----------7--5--4/2--0-----------0-----------0--7------/11-12--------------|
D|-2--4--5----------------4--2--4--------2--4--------------------10--10------|
A|------------------------------------3--------------------------------------|
E|---------------------------------------------------------------------------|

e|---------------------------------------------------------------------------|
B|-0/1/0/--/3/1-0-----------------1--0/--------------------------------------|
G|------/2/--------2/0/------0/7-------/11--12-------------------------------|
D|---------------------/4/2/3-------------------10--10-----------------------|
A|---------------------------------------------------------------------------|
E|---------------------------------------------------------------------------|
Suggest correction
Creating personal tab
Creating personal tab
You can edit any tab online and save it as your Personal.

You can edit, replace or remove any tab part or add personal notes – all changes will be seen only by you.

Personal tabs can be accessed anytime from any device, even offline.
Learn more »
Give kudos to tab author, rate the tab!
1 2 3 4 5
comments
print report bad tab
guest
You may want to rate the tab now too:
select rating
Wanna post a correction for this tab? Suggest correction