Oops, an error
Loading. Please wait.

Trading My Sorrows Bass

version 2
version 2

Whole song

25,768 views 54 this week
4 commentsread comments
1 2 3 4 5
x 12
add to favorites
launch autoscroll
font size
0
reset
guitar tuner
×
Best way to learn
"Trading My Sorrows"
Autoscroll
slow
fast
+/-
esc
set tempo
stop
INTRO:
G---6-6---11----14-14---13--|
D---------------------------|
A---------------------------|
E---5-5---10----14-14---12--|

G---6-6---11----14-14---16---|
D----------------------------|
A----------------------------|
E---5-5---10----14-14---16---|


G---6-6---11----14-14---13--|
D---------------------------|
A---------------------------|
E---5-5---10----14-14---12--|  2x


VERSE:
Im trading my sorrows,
G---6-6---11----14-14---13--|
D---------------------------|
A---------------------------|
E---5-5---10----14-14---12--|


Im trading my shame...
G---6-6---11----14-14---16--|
D---------------------------|
A---------------------------|
E---5-5---10----14-14---16--|


G---6-6---11----14-14---13--|
D---------------------------|
A---------------------------|
E---5-5---10----14-14---12--| 2x

Im trading my sickness,
G---6-6---11----14-14---13--|
D---------------------------|
A---------------------------|
E---5-5---10----14-14---12--|

Im trading my pain,
G---6-6---11----14-14---16--|
D---------------------------|
A---------------------------|
E---5-5---10----14-14---16--|


G---6-6---11----14-14---13--|
D---------------------------|
A---------------------------|
E---5-5---10----14-14---12--| 2x

CHORUS:
Yes Lord, Yes, Yes Lord
G---6-6---11----14-14---13--|
D---------------------------|
A---------------------------|
E---5-5---10----14-14---12--|

G---6-6---11----14-14---16---|
D----------------------------|
A----------------------------|
E---5-5---10----14-14---16---|

G---6-6---11----14-14---13--|
D---------------------------|
A---------------------------|
E---5-5---10----14-14---12--|

G---6-6---11----14-14---16---|
D----------------------------|
A----------------------------|
E---5-5---10----14-14---16---|

Verse:
I am pressed but not crushed
G---6-6---11----14-14---13--|
D---------------------------|
A---------------------------|
E---5-5---10----14-14---12--|

G---6-6---11----14-14---16---|
D----------------------------|
A----------------------------|
E---5-5---10----14-14---16---|

G---6-6---11----14-14---13--|
D---------------------------|
A---------------------------|
E---5-5---10----14-14---12--|

G---6-6---11----14-14---16---|
D----------------------------|
A----------------------------|
E---5-5---10----14-14---16---|

Though the sorrow may last for the night,
G----------------------------------|
D----------------------------------|
A----------------------------------|
E--0-------------------------------|


His joy comes with the morning,
G----------------------------------|
D----------------------------------|
A------------------5-5-5-5-5-------|
E---3------------------------------|

IT'S PRETTY MUCH THE SAME PATTERN, BUT THERE IS ANOTHER WAY TO DO IT IF YOU HAVE A 5-
string BASS. THE A YOU PLAY ON THE B-string WITH THE TWO NOTES YOU CAN SWITCH ON THE
5TH STRING LIKE THIS....
G---------11----14-14--------------|
D--11-11---------------------------|
A----------------------------------|
E---------10----14-14--------------|
B--10-10---------------------------|

THEN YOU CONTINUE. JUST THE A YOU CHANGE. IT'S MUCH EASIER TO PLAY THIS SONG IF YOU HAVE 
5-STRING BASS CUZ YOU DONT HAVE TO MOVE SO MUCH.

GOD BLESS, email me if any problems at elmusikopekoso23@hotmail.com
Suggest correction
comments
print report bad tab
4 comments total. Showing first comments.
0 reply
bdouts 113 Oct 28, 2008 06:29 AM

Solo??? anybody

0 reply
t7aeyang 30 Feb 15, 2009 10:02 AM

G---6-6---11----14-14---13--|
D---------------------------|
A---------------------------|
E---5-5---10----14-14---12--|

G---6-6---11----14-14---16---|
D----------------------------|
A----------------------------|
E---5-5---10----14-14---16---|

G---17-17---11----14-14---13--|
D-----------------------------|
A-----------------------------|
E---18-18---10----14-14---12--| 2x

0 reply
t7aeyang 30 Feb 15, 2009 10:03 AM

G---6-6---11----14-14---13--|
D---------------------------|
A---------------------------|
E---5-5---10----14-14---12--|

G---6-6---11----14-14---16---|
D----------------------------|
A----------------------------|
E---5-5---10----14-14---16---|

G---17-17---11----14-14---13--|
D-----------------------------|
A-----------------------------|
E---18-18---10----14-14---12--|

G---6-6---11----14-14---13--|
D---------------------------|
A---------------------------|
E---5-5---10----14-14---12--| 2x

guest
You may want to rate the tab now too:
select rating
Wanna post a correction for this tab? Suggest correction