Oops, an error
Loading. Please wait.

Days Of Summer chords

17,046 views 9 this week
3 commentsread comments
1 2 3 4 5
x 14
add to favorites
×
Save as Personal and add changes to this tab that will be seen only by you. Learn more ›
×
You can save this tab as Personal to edit and correct it or add notes. All changes will be seen only by you. Learn more »
launch autoscroll
font size
0
reset
transpose
0
reset
simplify chords
display chords
guitar tuner
edit
Autoscroll
slow
fast
+/-
esc
set tempo
stop
Author
Difficulty
Strumming
There is no strumming pattern for this song yet. and get +5 IQ
Intro riff notes:

E, D, C, A, A, B, C, low F
E, D, C, A, C, C, B, C

e-0-------------------0---------------|
B--3-1-----0-1---------3-1---1-1-0-1--|
G------2-2-----------------2----------|
D--------------3----------------------|
A-------------------------------------|
E-------------------------------------|

C                 F     G      Dm
   We got these days of summer to
             F    G
Remind us of each other
C                F     G      Dm
   The time we have to spend apart
             F       G         Am
Will keep us in each other's hearts
Am                     F
   I'm hoping that the good old days are
Em               Em7
Something I will dream about at night
Am                              F
   And It don't matter if it's sooner or later
G
I know that it's gonna be all right

F                 C
    I don't wanna see you go, but it's
Am           G
Not forever, not forever
F              C
    Even if it was, you know that
Am            G
I would never let it get me down
F                      C
     'Cause you're the part of me that
Am              G
Makes me better wherever I go
F                       G
So I will try not to cry
G
But no one needs to say good-bye

[instrumental]
It's the same as the first section from the start to 'i know that it's gonna be all 
right] Chords are (in case you don't wanna scroll back up):

C                 F     G      Dm
---------------------------------
             F    G
---------------------------------
C                F     G      Dm
---------------------------------
             F       G         Am
---------------------------------
Am                     F
---------------------------------
Em               Em7
---------------------------------
Am                              F
---------------------------------
G
---------------------------------

[Kick ass key change right here]

Ab                Eb
    I don't wanna see you go, but it's
Cm           Bb
Not forever, not forever
Ab             Eb
    Even if it was, you know that
Cm            Bb
I would never let it get me down
Ab                     Eb
     'Cause you're the part of me that
Cm              Bb
Makes me better wherever I go
Ab                       Bb
So I will try not to cry
Bb                           C
But no one needs to say good-bye


This is the little riff afterwards:


e--8-7-3-0------0------------|     (notes: high C, B, G, E, D-C-D-E-D-C)
B----------3p1-3--3p1--------|
G----------------------------|
D----------------------------|
A----------------------------|
E----------------------------|      x2

e--8-7-3-0------0-1h3--0h1-3--0h1-3---5--7--8-|
B----------3p1-3------------------------------|
G---------------------------------------------|
D---------------------------------------------|
A---------------------------------------------|
E---------------------------------------------|

(notes: high C, B, G, E, D, C, 
D, E-F-G, E-F-G, 
E-F-G, A, B, high C)

Repeat that little section again and then end on a C chord to make things easier (It 
does modulate loads whilst Harry's talking until it goes into Gotta Get Back to Hogwarts, 
but for the purposes of sticking to one song, just end on a C)
My brother plays guitar, I only play ukulele, so I have no idea really how to tab 
things.. 3p1 means pull off the 3rd onto the 1st, and 0h1 means hammer onto the 2nd from open. 
I don't know if that's how people do it, but it looks okay. XD

I put some serious effort into this, make good use of it :)

Have Fun

Tabbed by Dan Thomas (HeavensHostages)

            
            
Suggest correction
Creating personal tab
Creating personal tab
You can edit any tab online and save it as your Personal.

You can edit, replace or remove any tab part or add personal notes – all changes will be seen only by you.

Personal tabs can be accessed anytime from any device, even offline.
Learn more »
comments
print report bad tab
3 comments total.
0 reply
yeeitssteffeh 10 Jan 10, 2012 07:32 PM

Awesome tab!

+3 reply
rachgoms 10 Mar 14, 2012 02:38 PM

There's another way to do the outro so you're not jumping from the 7th fret to the 3rd.
you could also do it like this:
e--8-7-----------------------|
B------8-5------5------------|
G----------7p5-7--7p5--------| 2x
D----------------------------|
A----------------------------|
E----------------------------|

e--8-7--------------------------------5--7--8-|
B------8-5------5-6h8--5h6-8--5h6-8-----------|
G----------7p5-7------------------------------|
D---------------------------------------------|
A---------------------------------------------|
E---------------------------------------------|

For me, this is easier.

0 reply
Sami6 10 Dec 20, 2012 09:32 PM

thanks! really helped :)

guest
You may want to rate the tab now too:
select rating
Wanna post a correction for this tab? Suggest correction