Oops, an error
Loading. Please wait.

A Proper Story tab

20,693 views 66 this week
7 commentsread comments
1 2 3 4 5
x 13
add to favorites
×
Save as Personal and add changes to this tab that will be seen only by you. Learn more ›
×
You can save this tab as Personal to edit and correct it or add notes. All changes will be seen only by you. Learn more »
launch autoscroll
font size
0
reset
how to read this tab
guitar tuner
edit
Autoscroll
slow
fast
+/-
esc
set tempo
stop
Author
Difficulty
A Proper Story - Darren Korb - Bastion OST
Tabbed by: Kinarth
E-mail: sam_g-j@live.co.uk
Tuning : CGCFGC ,  Csus4 (Modal)

If there are any mistakes or improvements you can suggest feel free to message me or 
make you own tab using mine as a base.
Any feedback will be appreciated.
Also, please rate if you can.

[Part 1]
e|------------------|
B|------------------|
G|-0h2p0---------0--|
D|-------3p0-2h3----|
A|------------------|
E|------------------|

[Part 2]
Do some general strumming in this bit, just however you like it.
e|----0------------0-----------0---0-0-0------------------|
B|----0------------0-----------0---0-0-0------------------|
G|----2------------2-----------2---2-2-2-0h2p0---------0--|
D|----0--------5/7-0-------5/7-0---0-0-0-------3p0-2h3----|
A|----0--------3/5-0-------3/5-0---0-0-0------------------|
E|--0-0--0-0-0-----0-0-0-0-----0---0-0-0------------------|

e|----0------------0-----------0---0-0-0--------|
B|----0------------0-----------0---0-0-0--------|
G|----2------------2-----------2---2-2-2-0---0--|
D|----0--------5/7-0-------5/7-0---0-0-0-0---0--|
A|----0--------3/5-0-------3/5-0---0-0-0-3---5--|
E|--0-0--0-0-0-----0-0-0-0-----0---0-0-0-3---5--|

[Part 3]
e|---------------------------10---------------|
B|---------------------12-10----13-12-10-8-10-|
G|-7--7-7-7-7--7-7----------------------------|
D|-----------------7\-------------------------|
A|--------------------------------------------|
E|--------------------------------------------|

e|------------12-13-12-----------------------------|
B|-12---13-12----------12-10-----------10---12¬13--|
G|-------------------------------10----------------|
D|----------------------------12-------------------|
A|-------------------------------------------------|
E|-------------------------------------------------|

e|-----------------------------------------|
B|-10--12--13--12h13p12-10-----------------|
G|-----------------------------------------|
D|-------------------------13--12----------|
A|---------------------------------12--10--|
E|-----------------------------------------|

[Part 4]
This section is the one I'm least sure about, but it gets the job done.
e|----0------------0-----------0-----------0---0-0-0-|
B|----0------------0-----------0-----------0---0-0-0-|
G|----2------------2-----------2-----------2---2-2-2-|
D|----0--------5/7-0-------5/7-0-------5/7-0---0-0-0-|
A|----0--------3/5-0-------3/5-0-------3/5-0---0-0-0-|
E|--0-0--0-0-0-----0-0-0-0-----0-0-0-0-----0---0-0-0-|


e|--3h5-5-5--5-5-5--3h5-5-5--5-5-5--3h5-5-5--5-5-5--3h5-5-5--5-5-5--|
B|--5-----5--5-5-5--5-----5--5-5-5--5-----5--5-5-5--5-----5--5-5-5--|
G|--0-----0--0-0-0--0-----0--0-0-0--0-----0--0-0-0--0-----0--0-0-0--|
D|--0-----0--0-0-0--0-----0--0-0-0--0-----0--0-0-0--0-----0--0-0-0--|
A|------------------------------------------------------------------|
E|------------------------------------------------------------------|

That's all. Just play the different parts where appropriate.

************************************

| h  Hammer-on
| p  Pull-off
| /  Slide up
| \  Slide down

************************************

Thanks, Kinarth

            
            
Suggest correction
Creating personal tab
Creating personal tab
You can edit any tab online and save it as your Personal.

You can edit, replace or remove any tab part or add personal notes – all changes will be seen only by you.

Personal tabs can be accessed anytime from any device, even offline.
Learn more »
comments
print report bad tab
7 comments total. Showing first comments.
-1 reply
mmtg661 10 Nov 10, 2013 12:59 PM

Why does it say CGCFGC tuning yet the tab is in standard tuning?

+1 reply
ImMortallity 47 Nov 22, 2013 11:16 PM

mmtq661: The tab is actually in CGCFGC tuning, but it seems like he forgot to replace the EADGBe next to the strings. Try playing it in either tuning, you'll figure out soon enough ;)

0 reply
w.digard 10 Dec 17, 2013 12:57 AM

Part 1 doesn't sound that close to the recording,
so, instead of this:

C|------------------|
G|------------------|
F|-0h2p0---------0--|
C|-------3p2-2h3----|
G|------------------|
C|------------------|

I think it should be this:

C|------------------|
G|------------------|
F|-0h2p0---------0--|
C|-------3p0-2h3----|
G|------------------|
C|------------------|

This is simply what I think, but play how you want to play.

guest
You may want to rate the tab now too:
select rating
Wanna post a correction for this tab? Suggest correction