Oops, an error
Loading. Please wait.

Build That Wall Zias Theme chords

version 3
version 3

Whole song

Interactive

15,370 views 42 this week
3 commentsread comments
1 2 3 4 5
x 15
add to favorites
×
Save as Personal and add changes to this tab that will be seen only by you. Learn more ›
×
You can save this tab as Personal to edit and correct it or add notes. All changes will be seen only by you. Learn more »
launch autoscroll
font size
0
reset
transpose
0
reset
display chords
guitar tuner
edit
Autoscroll
slow
fast
+/-
esc
set tempo
stop
Strumming
There is no strumming pattern for this song yet. and get +5 IQ
[Chords]
      C    F    G    Eb   D
C |---0----0----x----x----x-----------|
G |---0----0----0----0----0-----------|
D#|---2----3----0----2----1-----------|
A#|---0----5----5----3----2-----------|
F |---0----x----7----3----2-----------|
C |---0----5----7----3----2-----------|

[Riff 1]
C |--------------------0-|
G |--------------------0-|
D#|--------------------2-|
A#|--------3-----------0-|
F |--0-3-5---5-5p3h5---0-|
C |------------------0-0-|

[Riff 2]
C |----------------------0-|
G |----------------------0-|
D#|----------------------3-|
A#|--------3-------------5-|
F |--0-3-5---5-3p0h3p0---x-|
C |--------------------5-5-|

[Intro]
[Riff 1]
C |--------------------0-|
G |--------------------0-|
D#|--------------------2-|
A#|--------3-----------0-|
F |--0-3-5---5-5p3h5---0-|
C |------------------0-0-|                          C
Hmmm hmmm hmmm hmmm hmmm hmmm hmhmmmmm

[Riff 2]
C |----------------------0-|
G |----------------------0-|
D#|----------------------3-|
A#|--------3-------------5-|
F |--0-3-5---5-3p0h3p0---x-|
C |--------------------5-5-|                           F
Hmmm hmmm hmmm hmmm hmmm hmmm hmhmmmmm
C              G                 C
Hmmm hmmm hmmm hmmm hmmm hmmm hmhmmmmm

[Verse]
                            C
I dig my hole, you build a wall
                            F
I dig my hole, you build a wall
C              G                C
   One day that wall is gonna fall
                            C
Gonna build that city on a hill
                            F
Gonna build that city on a hill
C                G                 C
   Someday those tears are gonna spill
   Eb                  D
So build that wall and build it strong
       Eb               D
'Cause we'll be there before too long

[Riff 1]
C |--------------------0-|
G |--------------------0-|
D#|--------------------2-|
A#|--------3-----------0-|
F |--0-3-5---5-5p3h5---0-|
C |------------------0-0-|                           C
Gonna build that wall up to the sky
                                 F
Gonna build that wall up to the sky
C               G                C
   Someday your bird is gonna fly
                                   C
Gonna build that wall until it's done
                                   F
Gonna build that wall until it's done
C                 G                C
   But now you've got nowhere to run
   Eb                  D
So build that wall and build it strong
       Eb               D
'Cause we'll be there before too long
Suggest correction
Creating personal tab
Creating personal tab
You can edit any tab online and save it as your Personal.

You can edit, replace or remove any tab part or add personal notes – all changes will be seen only by you.

Personal tabs can be accessed anytime from any device, even offline.
Learn more »
comments
print report bad tab
3 comments total.
0 reply
theodorvl 10 Jan 06, 2015 05:14 PM

Instead of playing 0-3-5 in the riffs, I find it a lot easier (and prettier) to replace the fifth fret with an open fourth string. Otherwise nice.

+2 reply
tijntm 32 Dec 09, 2016 09:54 AM

The way theodorvl said is the way Darren plays it, supergiant has the official tabs for free on their site.
https://store.supergiantgames.com/collections/free-downloads

guest
You may want to rate the tab now too:
select rating
Wanna post a correction for this tab? Suggest correction