Oops, an error
Loading. Please wait.

Radar Detector bass

4,951 views 6 this week
no commentswrite comment
1 2 3 4 5
x 5
add to favorites
×
Save as Personal and add changes to this tab that will be seen only by you. Learn more ›
×
You can save this tab as Personal to edit and correct it or add notes. All changes will be seen only by you. Learn more »
launch autoscroll
font size
0
reset
guitar tuner
edit
Autoscroll
slow
fast
+/-
esc
set tempo
stop
Difficulty
DARWIN DEEZ - RADAR DETECTOR -tabbed by will

This is my first tab so be kind guys :)

Muted plucking of the A string can add effect to this song.


Play to the same timings as guitar chords

Intro/Verse

G|----------------|----------------|----------------|----------------|
D|2-------------2-|2-------------2-|4-------------4-|4-------------4-|
A|----------------|----------------|----------------|----------------|
E|----------------|----------------|----------------|----------------| (2x)

Chorus

G|----------------|----------------|----------------|----------------|
D|2-------------2-|2-------------2-|----------------|----------------|
A|----------------|----------------|2-----2-4-----4-|2-------------2-|
E|----------------|----------------|----------------|----------------|

G|----------------|----------------|----------------|----------------|
D|--------2-----2-|4-----4---------|----------------|2-------------2-|
A|4-----4---------|--------2-----2-|0---------------|----------------|
E|----------------|----------------|----------------|----------------|

G|----------------|----------------|----------------|----------------|
D|----------------|--------2-----2-|----------------|----------------|
A|0-------------0-|4-----4---------|0-------------0-|4-----4-2-----2-|
E|----------------|----------------|----------------|----------------|

G|----------------|
D|----------------|
A|0---------------|
E|----------------|

Verse 2

G|----------------|----------------|----------------|----------------|
D|4-------------4-|4-------------4-|2-------------2-|2-------------2-|
A|----------------|----------------|----------------|----------------|
E|----------------|----------------|----------------|----------------| (2x)

Chorus

G|----------------|----------------|----------------|----------------|
D|----------------|----------------|--------2-----2-|4-----4---------|
A|2-----2-4-----4-|2-------------2-|4-----4---------|--------2-----2-|
E|----------------|----------------|----------------|----------------|

G|----------------|----------------|----------------|----------------|
D|----------------|2-------------2-|----------------|--------2-----2-|
A|0---------------|----------------|0-----0-0-----0-|4-----4---------|
E|----------------|----------------|----------------|----------------|

G|----------------|----------------|
D|----------------|----------------|
A|0-------------2-|4-----4-2-----2-|
E|----------------|----------------|

Bridge

G|----------------|----------------|----------------|----------------|
D|----------------|----------------|----------------|--------2-------|
A|0---------------|0---------------|0---------------|4-----4---------|
E|----------------|----------------|----------------|----------------|

G|----------------|----------------|----------------|----------------|
D|----------------|----------------|----------------|2-----2-4-----4-|
A|0-------------0-|0-------------0-|4-------------4-|----------------|
E|----------------|----------------|----------------|----------------|

G|----------------|----------------|----------------|----------------|
D|----------------|----------------|----------------|2-----2-4-----4-|
A|0-------------0-|0-------------0-|4-------------4-|----------------|
E|----------------|----------------|----------------|----------------|

G|----------------|----------------|----------------|----------------|
D|----------------|----------------|----------------|2-----2-4-----4-|
A|0-------------0-|0-------------0-|4-------------4-|----------------|
E|----------------|----------------|----------------|----------------|

G|----------------|----------------|----------------|----------------|
D|----------------|2-2-2-2-2-2-2-2-|----------------|--------2-----2-|
A|0---------------|----------------|0-----0-0-----0-|4-----4---------|
E|----------------|----------------|----------------|----------------|

G|----------------|----------------|----------------|----------------|
D|----------------|2-----2---------|--------------2-|2---------------|
A|0-----0-0-----0-|--------4-----4-|0---------------|----------------|
E|----------------|----------------|----------------|----------------|

Outtro

G|----------------|----------------|----------------|----------------|
D|4-------------4-|4-------------4-|2-------------2-|2-------------2-|
A|----------------|----------------|----------------|----------------|
E|----------------|----------------|----------------|----------------| 
(Continue as song fades out)

            
            
Suggest correction
Creating personal tab
Creating personal tab
You can edit any tab online and save it as your Personal.

You can edit, replace or remove any tab part or add personal notes – all changes will be seen only by you.

Personal tabs can be accessed anytime from any device, even offline.
Learn more »
comments
print report bad tab
guest
Wanna post a correction for this tab? Suggest correction