Oops, an error
Loading. Please wait.

As Lovers Go tab

version 5
version 5

Whole song

Interactive

106 views 1 this week
no commentswrite comment
1 2 3 4 5
3 more votes to show rating
add to favorites
×
Save as Personal and add changes to this tab that will be seen only by you. Learn more ›
×
You can save this tab as Personal to edit and correct it or add notes. All changes will be seen only by you. Learn more »
launch autoscroll
font size
0
reset
how to read this tab
guitar tuner
edit
Autoscroll
slow
fast
+/-
esc
set tempo
stop
-------------------------------------------------------------------------------
                            As Lovers Go (Acoustic) - Dashboard Confessional
-------------------------------------------------------------------------------
Tabbed by:Francis Caballero
https://www.youtube.com/watch?v=tY8k8-6YzaY


Tuning: 1/2 step down

Verse:
     C       Am        Fm      C           
eb|----------------------------------|          
Bb|--1-------1----------1------1-----|
Gb|--0-------2----------0------0-----|
Db|--2-------2----------3------2-----|
Ab|--3-------0----------3------3-----|
Eb|--x-------x----------x------x-----|


REFRAIN: (?-means dont know the name of the chords)
all wrong, all wrong, but youve got me...
     A?      Am      G?
eb|--5-------5-------0--------------|          
Bb|--5-------5-------3--------------|
Gb|--5-------5-------5--------------|
Db|--7-------7-------4--------------|
Ab|--8-------7-------5--------------|
Eb|--5-------5-------x--------------|


i'll be true i'll be usefull..... 
     C      F     Am        F 
eb|---------1------5--------1--------|          
Bb|--1------1------5--------1--------|
Gb|--0------2------5--------2--------|
Db|--2------3------7--------3--------|
Ab|--3------3------7--------3--------|
Eb|---------1------5--------1--------|

Then Dm and A#
(And i'll belong to you....)
      Dm      A#
eb|---5-------6------|          
Bb|---5-------6------|
Gb|---7-------7------|
Db|---7-------8------|
Ab|---5-------8------|
Eb|-----------6------|

CHORUS:
                              little faster here from F to G (By hesitating... and Taylor made "Part")
     C     B/A?    F     Dm     F - G    2x
eb|----------------1------5-----1---3-|          
Bb|--1------1------1------5-----1---0-|
Gb|--0------0------2------7-----2---0-|
Db|--2------0------3------7-----3---0-|
Ab|--3------2------3------5-----3---2-|
Eb|----------------1------------1---3-|


then VERSE 2:

Note:(Strum once C Chord) And I said "I've gotta be honest I've been waiting for you all my life

then
     C       Am        Fm      C           
eb|----------------------------------|          
Bb|--1-------1----------1------1-----|
Gb|--0-------2----------0------0-----|
Db|--2-------2----------3------2-----|
Ab|--3-------0----------3------3-----|
Eb|--x-------x----------x------x-----|


repeat

REFRAIN:

CHORUS:

For 2nd Chorus (1step up) i think they use power chords on this


1st part
D-D/C#? G then  E  G-A

     D - D/C#?      G                   E        G - A
eb|--------------------------|    eb|-------------------|  
Bb|--------------------------|    Bb|-------------------|
Gb|--7----7---------4--------|    Gb|---9---------------|
Db|--7----7---------5--------|    Db|---9--------5---7--|
Ab|--5----4---------5--------|    Ab|---7--------5---7--|
Eb|--x----x---------3--------|    Eb|------------3---5--|

2nd part
D-D/C#? B then E  C

     D - D/C#?      B                   E        C
eb|--------------------------|    eb|------------------|  
Bb|--------------------------|    Bb|------------------|
Gb|--7----7------------------|    Gb|---9---------5----|
Db|--7----7---------9--------|    Db|---9---------5----|
Ab|--5----4---------9--------|    Ab|---7---------3----|
Eb|--x----x---------7--------|    Eb|------------------|

repeat 1st part and 2nd part just add A - D 



     D - D/C#?      B                   E        C     A    D
eb|--------------------------|    eb|---------------------------|  
Bb|--------------------------|    Bb|---------------------------|
Gb|--7----7------------------|    Gb|---9---------5---------7---|
Db|--7----7---------9--------|    Db|---9---------5----7----7---|
Ab|--5----4---------9--------|    Ab|---7---------3----7----5---|
Eb|--x----x---------7--------|    Eb|------------------5--------|




Cheers happy new year







************************************

| /   slide up
| \   slide down
| h   hammer-on
| p   pull-off
| ~   vibrato
| +   harmonic
| x   Mute note
| b   Bend
| pb  Pre-bend
| br  Bend release
| pbr Pre-bend release
| brb Bend release bend

************************************
Suggest correction
Creating personal tab
Creating personal tab
You can edit any tab online and save it as your Personal.

You can edit, replace or remove any tab part or add personal notes – all changes will be seen only by you.

Personal tabs can be accessed anytime from any device, even offline.
Learn more »
Give kudos to tab author, rate the tab!
1 2 3 4 5
comments
print report bad tab
guest
You may want to rate the tab now too:
select rating
Wanna post a correction for this tab? Suggest correction