Oops, an error
Loading. Please wait.

Dusk And Summer chords

version 2
version 2

Whole song

9,011 views 1 this week
no commentswrite comment
1 2 3 4 5
x 5
add to favorites
×
Save as Personal and add changes to this tab that will be seen only by you. Learn more ›
×
You can save this tab as Personal to edit and correct it or add notes. All changes will be seen only by you. Learn more »
launch autoscroll
font size
0
reset
transpose
0
reset
simplify chords
display chords
guitar tuner
edit
Autoscroll
slow
fast
+/-
esc
set tempo
stop
Strumming
There is no strumming pattern for this song yet. and get +5 IQ
Dashboard Confessional
Dusk and Summer
Tabbed by cmax09@yahoo.com

Capo 2nd Fret

Chords Used
   G    G/F#  Cadd9   Em7   ?
e--3-----3-----3-------3----3-------------------------------------|
B--3-----3-----3-------3----3-------------------------------------|
G--0-----0-----0-------0----0-------------------------------------|
D--0-----0-----2-------2----x-------------------------------------|
A--2-----x-----3-------2----2-------------------------------------|
E--3-----2-----0-------0----0-------------------------------------|

Verse:

G               Cadd9
She smiled in a big way
     G               G/F#
The way a girl like that smiles
  G                Cadd9
When the world is hers
                ?
And she held your eyes

 G           Em7
Out in the breezeway
 G/F#        ?
Down by the shore
 G          Cadd9
In the lazy summer

 G
And she pulled you in
G/F#
And she bit your lip
Em7
And she made you hers

 G
And she looked
           ?
Deep into you as you lay together
 G/F#
Quiet in the grasp
 Cadd9
Of dusk and summer

Chorus:

G        Cadd9       ?
But you've already lost (x3)

 G
When you only had
 G/F#
Barely enough
 Cadd9
To hang on


(Verse two same as first verse)

Bridge:

e----10-----10-----10---------------------------------------------------|
B------8------8-------------8------------8--------8--------8-------8----|
G---0------0------0-------0---0--------0---0----0---0----0---0---0---0--|
D---------------------0-------------0--------0--------------------------|
A-7------7------6-------6-----------------------------9--------9--------|
E-----------------------------------------------------------------------|

And she said no one is alone
The way you are alone
And you held her looser
Than if you would have
If you ever could have known

Some things tie your life together
In slender threads of things to treasure
Days like that should last and last and last

Outro:

G        Cadd9       ?
But you've already lost (x3)

 G
When you only had
 G/F#
Barely enough
 Cadd9
To hang on

G/F#
Hang on
Cadd9
Hang on
G
Hang on
Suggest correction
Creating personal tab
Creating personal tab
You can edit any tab online and save it as your Personal.

You can edit, replace or remove any tab part or add personal notes – all changes will be seen only by you.

Personal tabs can be accessed anytime from any device, even offline.
Learn more »
comments
print report bad tab
guest
Wanna post a correction for this tab? Suggest correction