Oops, an error
Loading. Please wait.

Dusk And Summer tab

version 2
version 2

Whole song

  • DADGAD tuning, based on official Dusk and Summer book by Hal Leonard.
7,025 views 3 this week
2 commentsread comments
1 2 3 4 5
x 11
add to favorites
×
Save as Personal and add changes to this tab that will be seen only by you. Learn more ›
×
You can save this tab as Personal to edit and correct it or add notes. All changes will be seen only by you. Learn more »
launch autoscroll
font size
0
reset
how to read this tab
guitar tuner
edit
Autoscroll
slow
fast
+/-
esc
set tempo
stop
===============================================================================
                    Dusk and Summer - Dashboard Confessional
===============================================================================

Tabbed by: Tim Doyle
Email: Mog416@gmail.com


Capo: 2nd fret (Notes relative)
Tuning: Standard
| x = Mute note


INTRO
e|-3--|
B|-3--|
G|----|
D|----|
A|-3--|
E|-x--|


VERSE 1
"She smiled in a big way" (Intro chord changes to Verse chord at "big")
e|-7-----2-----3----|
B|-8-----3-----3----|
G|------------------|
D|------------------|   x4
A|-x-----x-----3----|
E|-7-----2-----x----|


CHORUS
"But you've already lost"
e|-3-----3-----3-----3----|
B|-3-----3-----3-----3----|
G|------------------------|
D|------------------------|     x2
A|-x-----x-----2-----3----|
E|-3-----2-----x-----x----|

After Chorus, go into Verse chords


VERSE 2
One progression w/o singing, then "And she combed your hair"
e|-7-----2-----3----|
B|-8-----3-----3----|
G|------------------|
D|------------------|   x5
A|-x-----x-----3----|
E|-7-----2-----x----|


CHORUS
"But you've already lost"
e|-3-----3-----3-----3----|
B|-3-----3-----3-----3----|
G|------------------------|
D|------------------------|     x2
A|-x-----x-----2-----3----|
E|-3-----2-----x-----x----|


BRIDGE
e|----10-----10-----10---------------------------------------------------|
B|------8------8-------------8------------8--------8--------8-------8----|
G|---0------0------0-------0---0--------0---0----0---0----0---0---0---0--|
D|---------------------0-------------0--------0--------------------------|
A|-7------7------6-------6-----------------------------9--------9--------|
E|-----------------------------------------------------------------------|

"She said..."
e|----10-------------10------------------------------------------------|
B|------8-----8--------8------8----------8-------8--------8-------8----|
G|---0------0---0----0------0---0------0---0---0---0----0---0---0---0--|
D|-----------------------------------0-------0-------------------------|
A|-7------7--------6------6---------------------------9-------9--------|
E|---------------------------------------------------------------------|

"Some things tie your life..."
e|----10-----10-------------------------------------------------------|
B|------8------8------8-------8---------8-------8--------8-------8----|
G|---0------0-----------0-------0-----0---0---0---0----0---0---0---0--|
D|------------------0-------0-------0-------0-------------------------|
A|-7------7-------6-------6--------------------------9-------9--------|
E|--------------------------------------------------------------------|


CHORUS
"But you've already lost"
e|-3-----3-----3-----3----|
B|-3-----3-----3-----3----|
G|------------------------|
D|------------------------|     x2
A|-x-----x-----2-----3----|
E|-3-----2-----x-----x----|

In this final chorus, a barely audible guitar is heard picking something like
 this in the background:
e|---7---7---7---7---7------5---5---5---5---5--|
B|-8---8---8---8---8------8---8---8---8---8----|
G|---------------------------------------------|
D|---------------------------------------------|        x3
A|---------------------------------------------|
E|---------------------------------------------|
(At the beginning of the 4th time, you'll just play the "8-7" half,
 and you'll end on "8")


ENDING (Verse chords, slow, drawn-out strum)
e|-7-----2-----3----|
B|-8-----3-----3----|
G|------------------|
D|------------------|   x2
A|-x-----x-----3----|
E|-7-----2-----x----|


=================================================================================

            
            
Suggest correction
Creating personal tab
Creating personal tab
You can edit any tab online and save it as your Personal.

You can edit, replace or remove any tab part or add personal notes – all changes will be seen only by you.

Personal tabs can be accessed anytime from any device, even offline.
Learn more »
comments
print report bad tab
2 comments total.
+1 reply
Gloubu 20 Jul 05, 2006 06:27 PM

the bridge doesn't sound right to me and the chords are: |--3-----3--3--|
|--3--3--3--3--|
|--0--2--0--0--|
|--0--0--2--2--|
|--2--0--2--3--|
|--3--3--------|

0 reply
philzy 10 Jul 13, 2006 12:05 AM

good work, but he plays higher notes in the verse and the chorus. but you figured out the first chord of those higher notes, thats great :P

guest
You may want to rate the tab now too:
select rating
Wanna post a correction for this tab? Suggest correction