Oops, an error
Loading. Please wait.

Even Now Acoustic tab

10,346 views 1 this week
3 commentsread comments
1 2 3 4 5
x 3
add to favorites
×
Save as Personal and add changes to this tab that will be seen only by you. Learn more ›
×
You can save this tab as Personal to edit and correct it or add notes. All changes will be seen only by you. Learn more »
launch autoscroll
font size
0
reset
how to read this tab
guitar tuner
edit
Autoscroll
slow
fast
+/-
esc
set tempo
stop
Artist: Dashboard Confessional
Song: Even Now (Acoustic)

Tuning: half step down.

Great song, on an acoustic guitar.  Nobody really tabbed it correctly yet, so here it 
 I listened to it off his myspace at www.myspace.com/dashboardconfessional


Intro/Break
eb|----3---3---3---3---3---3---3---3--|
Bb|----3---3---3---3---3---3---3---3--|
Gb|-----------------------------------|
Db|-----------------------------------|
Ab|-----------------------------------|
Eb|--3---3---3---3---3---3---3---3----|


Verse
eb|----3---3---3---3---3---3---3---3--|----3---3---3---3---3---3---3---3--|
Bb|----3---3---3---3---3---3---3---3--|----3---3---3---3---3---3---3---3--|
Gb|-----------------------------------|-----------------------------------|
Db|-----------------------------------|-----------------------------------|
Ab|-----------------------------------|--3---3---3---3--------------------|
Eb|--3---3---3---3---2---2---2---2----|------------------2---2---2---2----|


Chorus
eb|----3---3---3---3---3---3---3---3--|
Bb|----3---3---3---3---3---3---3---3--|
Gb|-----------------------------------|
Db|-----------------------------------|
Ab|-----------------------------------|
Eb|--3---3---3---3---2---2---2---2----|


Bridge
eb|----3---3---3---3---3---3---3---3--|----3---3---3---3---3---3---3---3--|
Bb|----3---3---3---3---3---3---3---3--|----3---3---3---3---3---3---3---3--|
Gb|-----------------------------------|-----------------------------------|
Db|--0---0---0---0--------------------|-----------------------------------|
Ab|------------------3---3---3---3----|------------------3---3---3---3----|
Eb|-----------------------------------|--0---0---0---0--------------------|


Order:

*Intro*

*Verse*
Even now I can smell your clothes
Freshly from the wash,
Still hot from the dryer.
Even now I can smell your skin
As I wrap you in a towel,
Lay you on the bed, and try to love you
Even now I can feel your arms.
I can feel your breasts.
I can hear your songs.

*Chorus*
And I always can find you again.

*Break*

*Verse*
Even now I can feel your hand
Gently over mine,
With almost no weight at all.
Even now I can feel your eyes.
Watch me as I strum
Much too late at night.
Even now I can see you smile.
I can hear you hum.
I can hear you sing.

*Chorus*
And I always can find you again.

*Break*

*Bridge*
Even in the dark of night.
Even in the lowest light.
Even as the world outside is spinning,
And spinning

*Verse*
Even now I can feel your hair
Blow across my cheek
As we sit in one of two chairs.
Even now I can feel your face
Resting on my chest,
Wrestling for sleep and failing at it.
Even now I can see you sleep.
I can see you dream.
I can see you fly.

*Chorus*
And I always can find you again.
And I always can find you again.

            
            
Suggest correction
Creating personal tab
Creating personal tab
You can edit any tab online and save it as your Personal.

You can edit, replace or remove any tab part or add personal notes – all changes will be seen only by you.

Personal tabs can be accessed anytime from any device, even offline.
Learn more »
Give kudos to tab author, rate the tab!
1 2 3 4 5
comments
print report bad tab
3 comments total.
-1 reply
joellaw44 931 Nov 17, 2009 10:37 AM

The chords on the bridge are wrong. It should be C, G/B, F, Em. The rest looks pretty good though.

-1 reply
Schwabee 256 Nov 17, 2009 02:18 PM

F isn't even in the key... so wrong.

-1 reply
joellaw44 931 Apr 29, 2010 12:54 PM

Check out the other guy's chords on here, they're a lot better.

guest
You may want to rate the tab now too:
select rating
Wanna post a correction for this tab? Suggest correction